Edguy

home > Edguy

Judas at the opera Tab

Edguy

Difficulty: nolevelnolevel

by europeu

tuner correct add songbook print version text version save to e-mail
chordsukulelecavacokeyboardtabbassdrumsharmonicsflute Guitar Pro
chords

Judas at the opera

  		Intro solo                                  3x      4x 
----14--14--12--11---------14br--12-----12tr---12h14p12-------12----| 
-/15---------------14-12------------15------------------15-15----15-| play 2x 
--------------------------------------------------------------------| 
--------------------------------------------------------------------| 
--------------------------------------------------------------------| 
--------------------------------------------------------------------| 
 
Riff 1 
 
---------------------------------------------------------------------| 
---------------------------------------------------------------------| 
---------------------------------------------------------------------| 
-5-5-5-5-5--5-5-5-5-5--5-5-5-5-5--5-5-5-5-5--------------------------| 
-5-5-5-5-5--5-5-5-5-5--5-5-5-5-5--5-5-5-5-5----3h5p3---3-------------| 
-3-3-3-3-3--3-3-3-3-3--3-3-3-3-3--3-3-3-3-3----------6--6-5-6--------| 
 
---------------------------------------------------------------------| 
---------------------------------------------------------------------| 
---------------------------------------------------------------------| 
-5-5-5-5-5--5-5-5-5-5--5-5-5-5-5--5-5-5-5-5-5-6----6-6-6-6-----------| 
-5-5-5-5-5--5-5-5-5-5--5-5-5-5-5--5-5-5-5-5-5-6----6-6-6-6-----------| 
-3-3-3-3-3--3-3-3-3-3--3-3-3-3-3--3-3-3-3-3-3-4----4-4-4-4-----------| 
 
Verse 
 
Am                       Em 
Darkness has covered the opera house 
Am                           Em 
Something is wrong can´t you feel 
E                    D 
There´s a devil in disguise 
C                       G 
A traitor has taken the days 
Am                    Em 
Cataloug people spent pity in gaze 
Am                Em 
What can a man do in such a case 
E            D 
Aristocratic experts on art 
C                   G 
Vomite all over the place 
 
 
--- 
--- 
-5- 
-5- 
-3- 
--- 
And i wish i´d be 
 
------| 
------| 
-5/7-- 
-5/7-- 
-3/7-- 
------ 
Doomed eternelly 
 
Chorus 
 
-----------------------------------------------------------| 
-----------------------------------------------------------| 
---9------6-----9-------7-6-7-6-9-8------------------------| 
---9--9---6--7--9--9----7-6-7-6-9-8------------------------|    Play 2x 
---7--9---4--7--7--9----5-4-5-4-7-6------------------------| 
------7------5-----7---------------------------------------| 
 
 
Verse 2 
 
A5           E5 
Huntsmen are rushing around 
Am                E5 
After the peacock oh no 
              E5 
The batton is pink and it´s clear 
D5 
He is a queer 
C5                   G5 
He likes it into his rear 
A5                 E5 
Rumors arise he is from outer space 
        A5                   E5 
They´re after the bounty yet still they´re amazed 
E5           D5              C5           G5 
Aristocratic lemmings with a highsnobiety leer 
 
Riff 2+ Chorus 
 
A.H 
----- 
----- 
----- 
-9~-- 
----- 
----- 
 
---------------------------------| 
---------------------------------| 
-7-7-7-7-7-7-7-7-7-7-7-7-7-7-7-7-| 
-7-7-7-7-7-7-7-7-7-7-7-7-7-7-7-7-| 
-5-5-5-5-5-5-5-5-5-5-5-5-5-5-5-5-| 
---------------------------------| 
 
We came from a solar........ 
 
 
Who do you think you are..... 
--------------------------------------------------| 
--------------------------------------------------| 
-7-7-7-7-7-7-7-7-5-5-5-5-5-5-5-5-3-3-3-3-3-3-3-3--| 
-7-7-7-7-7-7-7-7-5-5-5-5-5-5-5-5-3-3-3-3-3-3-3-3--| 
-5-5-5-5-5-5-5-5-3-3-3-3-3-3-3-3-1-1-1-1-1-1-1-1--| 
--------------------------------------------------| 
 
-------| 
-------| 
-3-3-3-| 
-3-3-3-| 
-0-1-0-| 
 
             C5         G5 
´Cause we´re taking the chance 
C5         G5 
Taking the chance 
F5  G5 
Get you 
C5          G5 
Darting the glans 
C5          G5 
Darting the glans 
F5 G5 
At us 
Am          Emaj7 
Startin´ to dance 
Am          Emaj7         play 2x 
Startin´ to prance 
 
Of the oddballs 
---------------------| 
-1-1-1-0-1-1-1-0-1-0-| 
-2-2-2-2-2-2-2-2-2-2-| 
-2-2-2-2-2-2-2-2-2-2-| 
-0-0-0-0-0-0-0-0-0-0-| 
---------------------| 
 
 
And you´re invited 
 
 
-0- 
-1- 
-2- 
-2- 
-0- 
-0- 
 
 
Frankenstein is out of..... 
 
-------------------------------------------| 
-------------------------------------------| 
--7-9--------7-9---------------------------| 
--7-9--------7-9---------------------------|      Play 2x 
--5-7--------5-7---------------------------| 
-----0-0-0-0-----0-0-0-0-0-0-0-------------| 
 
-------------------------------------------| 
-------------------------------------------| 
--5-7-------5-7----------------------------| 
--5-7-------5-7----------------------------| 
--3-5-------3-5----------------------------| 
-----0-0-0-0-----0-0-0-0-0-0-0-------------| 
 
 
Madness rising..... 
 
--------------------------------------------------| 
--------------------------------------------------| 
--7---5---10---9---9/10---------------------------| 
--7---5---10---9---9/10---------------------------| 
--5---3---8----7---7/8----------------------------| 
--------------------------------------------------| 
 
**SOLO** 
 
 
You say treason but..... 
 
--------------------------------------------------------| 
--------------------------------------------------------| 
----7--6--9--7-6-7-6--7--9--7--6--7--4------------------| 
----7--6--9--7-6-7-6--7--9--7--6--7--4------------------| 
----5--4--7--5-4-5-4--5--7--5--4--5--2------------------| 
--------------------------------------------------------| 
 
Riff 2+Chorus 
 
Intro solo 
 
 

	  

Full key step upFull key step up
Half key step upHalf key step up
Half key step downHalf key step down
Full key step downFull key step down
Search Paypal
auto scroll beats size up size down change color hide chords drawings
tab show chords e-chords YouTube Clip e-chords hide all tabs e-chords go to top tab