Eddie Van Halen

Ice cream mam

Eddie Van Halen

tabs Advanced advanced

by  2U4UBYU

save to print version add songbook text version e-mail correct tuner
chordsukulelecavacokeyboardtabbassdrumsharmonicaflute Guitar Pro
close

there isn't a video lesson for this song

chords

Ice cream mam

	  		ICE CREAM MAN 
As recorded by Van Halen 
(From the 1978 Album VAN HALEN) 
 
 
Words and Music by Edward Van Halen, Alex Van Halen, Michael Anthony & David Lee Roth 
 
E5 
0 2 2 x x xE6 
0 4 x x x xA5 
x 0 2 x x xA6 
x 0 4 x x xB5 
x 2 4 x x xB6 
x 2 6 x x xE5VII 
x 7 9 x x xE6VII 
x 7 11 x x xE 
x 7 9 9 9 xD 
x 0 0 2 3 2G 
3 2 0 0 0 3F# 
2 4 4 3 2 2G# 
4 6 6 5 4 4 
 
Gtr I (Eb Bb Eb G Bb Eb) - 'David Lee Roth - steel string acoustic' 
Gtr II (Eb Ab Db Gb Bb Eb) - 'Eddie Van Halen - Rhythm / Lead w/dist (brown sound)' 
Gtr III (Eb Ab Db Gb Bb Eb) - 'Eddie Van Halen - Lead overdubs w/dist (brown sound)' 
 
Intro 
  Q=176(8=s8) 
  E7 
 4/4 
  Gtr I 
  E E E E E E E E   E E E E E E E E   E E E E E E E E   E E E E E E E E 
|-----------------|-----------------|-----------------|------------------|| 
|---0---0---0---0-|---0---0---0---0-|---0---0---0---0-|---0---0---0---0--|| 
|-----------------|-----------------|-----------------|------------------|| 
|-----------------|-----------------|-----------------|------------------|| 
|---------0---2---|-3---2---0---2p0-|---------0---2---|-3---2---0---2p0--|| 
|-0---4-----------|-----------------|-0---4-----------|------------------|| 
 
 
 Verse 1 
  E E E E E E E E   E E E E E E E E   E E E E E E E E   E E E E E E E E 
|-----------------|-----------------|-----------------|------------------| 
|-----------------|-----------------|---0---0---0---0-|---0---0---0---0--| 
|-----------------|-----------------|-----------------|------------------| 
|-0-0-0-0-0-0-0-0-|-5-5-5-5-5-5-5-5-|-----------------|------------------| 
|-0-0-2-0-0-0-2-0-|-5-5-7-5-5-5-7-5-|-0---2---3---2---|-0---2---0---2----| 
|-0-0-0-0-0-0-0-0-|-5-5-5-5-5-5-5-5-|-0---0---0---0---|-0---0---0---0----| 
|-Rhy Fig 1 
 
  E E E E E E E E   E E E E E E E E   E E E E E E E E   E E E E E E E E 
|-----------------|-----------------|-----------------|------------------| 
|-----------------|-----------------|---0---0---0---0-|---0---0---0---0--| 
|-----------------|-----------------|-----------------|------------------| 
|-5-5-5-5-5-5-5-5-|-5-5-5-5-5-5-5-5-|-----------------|------------------| 
|-5-5-7-5-5-5-7-5-|-5-5-7-5-5-5-7-5-|-0---2---3---2---|-0---2---0---2----| 
|-5-5-5-5-5-5-5-5-|-5-5-5-5-5-5-5-5-|-0---0---0---0---|-0---0---0---0----| 
 
 
  E E E E E E E E   E E E E E E E E   E E E E E E E E   Q  E  E  +E   E  E E 
|-----------------|-----------------|-----------------|-------7--(7)--7--7----|| 
|-----------------|-----------------|---0---0---0---0-|-------7--(7)--7--7----|| 
|-----------------|-----------------|-----------------|-------7--(7)--7--7----|| 
|-7-7-7-7-7-7-7-7-|-5-5-5-5-5-5-5-5-|-----------------|-0-----7--(7)--7--7----|| 
|-7-7-9-7-7-7-9-7-|-5-5-7-5-5-5-7-5-|-0---2---3---2---|-0--7-(7)-----(7)-7-x--|| 
|-7-7-7-7-7-7-7-7-|-5-5-5-5-5-5-5-5-|-0---0---0---0---|-0--7---------(7)-7-x--|| 
                      end Rhy Fig 1-| 
 
 Chorus 
 Rhy Fig 1 
 
                                               Verse 2 
  E E E E E E E   E    E  E  E  E  E  E  E E    Q  Q  H      Q.   E H 
|--------------------|----7--7--7--7--7--7---||-0----------|-0----0------| 
|--------------------|----7--7--7--7--7--7---||-3----------|-3----3------| 
|--------------------|----7--7--7--7--7--7---||-0----------|-0----0------| 
|-0-0-0-0-0-0-0------|----7--7--7--7--7--7---||-0----------|-0----0------| 
|-0-0-2-0-0-0-0--(7)-|-7-(7)-7-(7)-7-(7)-7-0-||-0----------|-0----0------| 
|-0-0-0-0-0-0-4/--7--|-7-(7)-7-(7)-7-(7)-7-0-||-0----------|-0----0------| 
 
 
  Q  Q  H      Q  Q  Q  Q    E E E E E E E E   E E E E E E E E 
|-0----------|-------------|-----------------|------------------| 
|-0----------|-------------|-----------------|------------------| 
|-0----------|-------------|-----------------|------------------| 
|-0----------|-------------|-5-5-5-5-5-5-5-5-|-5-5-5-5-5-5-5-5--| 
|-0----------|----2--------|-5-5-7-5-5-5-7-5-|-5-5-7-5-5-5-7-5--| 
|-0----------|-0--2--3--4--|-5-5-5-5-5-5-5-5-|-5-5-5-5-5-5-5-5--| 
 
 
  E E E E E E E E   E E E E E E E E   E E E E E E E E 
|-----------------|-----------------|-----------------| 
|---0---0---0---0-|---0---0---0---0-|-----------------| 
|-----------------|-----------------|-----------------| 
|-----------------|-----------------|-7-7-7-7-7-7-7-7-| 
|-0---2---3---2---|-0---2---0---2---|-7-7-9-7-7-7-9-7-| 
|-0---0---0---0---|-0---0---0---0---|-7-7-7-7-7-7-7-7-| 
 
 
  E E E E E E E E   E E E E E E E  E    E  E  E  E  E E E E 
|-----------------|-------------------|----7--7--7--7-------|| 
|-----------------|-------------------|----7--7--7--7-------|| 
|-----------------|-------------------|----7--7--7--7-------|| 
|-5-5-5-5-5-5-5-5-|-0-0-0-0-0-0-0-(7)-|----7--7--7--7-------|| 
|-5-5-7-5-5-5-7-5-|-0-0-2-0-0-0-2s=7--|-7-(7)-7-(7)-7-2-0-0-|| 
|-5-5-5-5-5-5-5-5-|-0-0-0-0-0-0-0-(7)-|-7-(7)-7-(7)-7-0-0-0-|| 
 
 
 Verse 3 
  E E E E E E E E   E E E E E E E E   E E E E E E E E 
|-----------------|-----------------|-----------------| 
|-----------------|-----------------|-----------------| 
|-----------------|-----------------|-----------------| 
|-0-0-0-0-0-0-0-0-|-5-5-5-5-5-5-5-5-|---------------0-| 
|-0-0-2-0-0-0-2-0-|-5-5-7-5-5-5-7-5-|-0-0-2-2-3-3-2-0-| 
|-0-0-0-0-0-0-0-0-|-5-5-5-5-5-5-5-5-|-0-0-0-0-0-0-0-0-| 
 
 
  E E E E E E E  E    E E E E E E E E   E E E E E E E E 
|-------------------|-----------------|-----------------| 
|-------------------|-----------------|-----------------| 
|-------------------|-----------------|-----------------| 
|-------------------|-5-5-5-5-5-5-5-5-|-5-5-5-5-5-5-5-5-| 
|-0-0-2-0-0-0-2s=5--|-5-5-7-5-5-5-7-5-|-5-5-7-5-5-5-7-5-| 
|-0-0-0-0-0-0-0-(5)-|-5-5-5-5-5-5-5-5-|-5-5-5-5-5-5-5-5-| 
 
 
  E E E E E E E E   E E E E E E E E   E E E E E E E E   E E E E E E E E 
|-----------------|-----------------|-----------------|------------------| 
|---0---0---0---0-|---0---0---0---0-|-----------------|------------------| 
|-----------------|-----------------|-----------------|------------------| 
|-----------------|-----------------|-7-7-7-7-7-7-7-7-|-5-5-5-5-5-5-5-5--| 
|-0---2---3---2---|-0---2---0---2---|-7-7-9-7-7-7-9-7-|-5-5-7-5-5-5-7-5--| 
|-0---0---0---0---|-0---0---0---0---|-7-7-7-7-7-7-7-7-|-5-5-5-5-5-5-5-5--| 
 
 
                                               Verse 4 
  E E E E E E E  E    E  E  E  E  E  E   Q 
|-------------------|----7--7--7--7--7---7---|| 
|-------------------|----7--7--7--7--7---7---|| 
|-------------------|----7--7--7--7--7---7---|| 
|-0-0-0-0-0-0-0-(7)-|----7--7--7--7--7---7---|| 
|-0-0-2-0-0-0-2s=7--|-x-(7)-7-(7)-7-(7)--7---|| 
|-0-0-0-0-0-0-0S(7)-|-x-(7)-7-(7)-7-(7)--7---|| 
| 
| Gtr II 
| W                   H           Q      q      Q  Q  H 
|-------------------|------------------------||------------| 
|-------------------|------------------------||------------| 
|-------------------|------------------------||------------| 
|-------------------|------------------------||------------| 
|-------------------|------------------------||------------| 
|-------------------|-------------------10\--||-0----------| 
 
 
  Gtr II 
  Q  E E H      Q  Q  Q  Q     Q  Q  Q  Q 
|-------------|--------------|-------------| 
|-------------|--------------|-------------| 
|-------------|--------------|-------------| 
|-------------|--------------|-------------| 
|-------------|--------------|-------------| 
|-0----0------|-0--------x\--|-0--2--3--4--| 
 
 
  E E Q  E E E E   +Q   Q  E E E E   +Q   E E Q  E E 
|----------------|-----------------|-----------------| 
|----------------|-----------------|-----------------| 
|----------------|-----------------|-----------------| 
|-2-2-4--2-x-4-2-|-(2)--4--2-4-----|-----------------| 
|-0-0-0--0-x-0-0-|-(0)--0--0-0---2-|-(2)--4---2--4-2-| 
|----------------|-------------0-0-|-(0)--0-0-0--0-0-| 
 
 
  +Q   Q  Q  E E   E E E E +E  E E E   +E  E E E E E E E 
|----------------|-------------------|-------------------| 
|----------------|-------------------|-------------------| 
|----------------|-------------------|-------------------| 
|--------------4-|-4-4-6-4-(4)-4-6-2-|-(2)-2-4---2-4-----| 
|-(2)--4--2----2-|-2-2-2-2-(2)-2-2-0-|-(0)-0-0-0-0-0---2-| 
|-(0)--0--0--0---|-------------------|---------------0-0-| 
 
 
                                       Chorus 
  +Q   E E Q  E E   E E E E E E  Q      E E Q  E E E E 
|-----------------|------------------||----------------| 
|-----------------|------------------||----------------| 
|-----------------|------------------||----------------| 
|-----------------|-4-4-6-4-4-x------||--------------2-| 
|-(2)--4---2------|-2-2-2-2-2-x------||-2-2-4--2-2-4-0-| 
|-(0)--0-0-0--0-x-|-------------10\--||-0-0-0--0-0-0---| 
                                      |-Rhy Fig 2 
 
  +E  E E E E E E E   +E  E Q  Q  E E   +E  E  Q  Q  E  E 
|-------------------|-----------------|-------------------| 
|-------------------|-----------------|-------------------| 
|-------------------|-----------------|-------------------| 
|-(2)-2-4---2-2-----|---------------9-|-(9)-9-11--9--x\-2-| 
|-(0)-0-0-0-0-0---2-|-(2)-2-4--2----7-|-(7)-7--7--7--x\-0-| 
|---------------0-0-|-(0)-0-0--0--0---|-------------------| 
 
 
  Q  Q  E E E E   +Q   E E E E E E   +E  E  Q  E E E E 
|---------------|------------------|-------------------| 
|---------------|------------------|-------------------| 
|---------------|------------------|-------------------| 
|-2--4--2-2-4-2-|-(2)--4---2-x---9-|-(9)-9-11--9-x---9-| 
|-0--0--0-0-0-0-|-(0)--0-0-0-x---7-|-(7)-7--7--7-x---7-| 
|---------------|--------------0---|---------------0---| 
 
 
                        PM| 
  +Q    Q  Q  Q     E E E E E E E E   +E  E E E E Q   E 
|-----------------|-----------------|-------------------| 
|----------9------|-----------------|-----------------9-| 
|----------9------|-----------------|-----------------9-| 
|-(9)--11--9------|-4-4-6-4-4-4-6-2-|-(2)-2-4-2-2-4/--9-| 
|-(7)---7--7------|-2-2-2-2-2-2-2-0-|-(0)-0-0-0-0-0---7-| 
|-------------x\--|-----------------|-------------------| 
                      end Rhy Fig 2-| 
 
   E  E  E   E  E  E  E  E    E  E  E  E  +E   Q   E 
|--------------------------|------------------12--12-|| 
|--9-----------14----------|-16-------16-(16)--------|| 
|-(9)-9-(9)s14----14-------|----16-------------------|| 
|-(9)----9s=14-------14s16-|-------16----------------|| 
|-(7)----------------------|-------------------------|| 
|--------------------------|-------------------------|| 
 
 
 Guitar Solo 
   |--3--|                 |--3--| 
   E  E  E  S  S  a  S  S  E  E  E  S  S  S  S 
|-16-19-12h16p12-12h14-12-16-19-12h16p12-14-12--| 
|----------------12h14--------------------------| 
|-----------------------------------------------| 
|-----------------------------------------------| 
|-----------------------------------------------| 
|-----------------------------------------------| 
 
 
   |--3--|              |--3--| 
   E  E  E  S  S  S  S  E  E  E  S  S  S  S 
|-16-19-12h16p12-14-12-16-19-12-16p12-14p12-| 
|----------------------------12-------------| 
|-------------------------------------------| 
|-------------------------------------------| 
|-------------------------------------------| 
|-------------------------------------------| 
 
 
   |--3--|              |--3--|                |--3--|              |3-| 
   E  E  E  S  S  S  S  E  E  E  S  S  S  S    E  E  E  S  S  S  S  E  Q E  E 
|-------------------------------------------|--------------------------------------| 
|-16-19-12h16p12-15-------------------------|------------------------------15b18===| 
|-------------------12-16-19-12h16p12-14----|--------------------------------------| 
|----------------------------------------12-|-16-19-12h16p12-14-12-----------------| 
|-------------------------------------------|-------------------12-16-19-0---------| 
|-------------------------------------------|--------------------------------------| 
 
 
                      T   T          T      T 
                          |---3---| 
   +E   +E   S  S  S  S  +E    E  E  S   S  S   S 
|-------------------------------------------------| 
|-(15)r(15)p12h15p12-15-(15)/p12h15-17/p15-17/p15-| 
|-------------------------------------------------| 
|-------------------------------------------------| 
|-------------------------------------------------| 
|-------------------------------------------------| 
 
 
                                                  \1/     \1/   \1/        \1.5____ 
   T      T      T 
                 |--3---|           |---3----|    |------3------|    |--3--| 
   S   S  S   S  E   E  E  Q       +E   +E   E    Q      +Q    +Q   +E.  S H 
|----------------------------------------------|----------------------------------| 
|-17/p15-17/p15-17/p15p12----------------------|----------------------------------| 
|-------------------------14b15===(14)r(14)p12-|-14b16==(14)--(14)r(14)p12p0------| 
|----------------------------------------------|----------------------------------| 
|----------------------------------------------|----------------------------------| 
|----------------------------------------------|----------------------------------| 
 
 
        / 
                                            ~~~              ~~~~~~~ 
             |---------3---------| 
  +Q   +Q   +Q   Q     +E       +E     +E   Q    E  E  E  E  E 
|-----------------------------------|-----------12-15-16-16--------| 
|---------------15b17r(15)b17==(15)-|-(15)-15r--------------15b17==| 
|-(0)--(0)--(0)---------------------|------------------------------| 
|-----------------------------------|------------------------------| 
|-----------------------------------|------------------------------| 
|-----------------------------------|------------------------------| 
 
 
 ~~~~~~~ 
    |-3--|   |-----6------| |--3--|  |--3--| 
   +Q    E  +S   S  S  S  E E  E  E  E  E  E 
|-------12-(12)----------------------------------| 
|-(15)r---------12h15p12------------15p12--------| 
|------------------------14-x-15-14-------14b16--| 
|------------------------------------------------| 
|------------------------------------------------| 
|------------------------------------------------| 
 
 
                                           \3____/ 
   |--3--|  |--3--|     |--3--| 
   E  E  E  E  E  E     E  E  E  E    E   +Q.    E +Q   E  E 
|---------------------------------------|------------------------| 
|-12-------15p12-------12---------------|------------------------| 
|----15-14-------14b16----15-14-12b14p0-|-(0)-----------x-12b15==| 
|---------------------------------------|------------------------| 
|---------------------------------------|------------------------| 
|---------------------------------------|--------0-(0)-----------| 
 
 
          ~~~~ T      ~~~~  T 
               |--3---|     |----3----| 
   +Q    +Q    Q  Q  +Q     Q  Q  +E  E  E  E     +E  E 
|------------------------|-------------------------------| 
|------------------------|-------------------------------| 
|-(12)--(12)--15p12-(12)-|-15p12r(12)p9-11-11b12r(11)p9--| 
|------------------------|-------------------------------| 
|------------------------|-------------------------------| 
|------------------------|-------------------------------| 
 
 
                       ~~~~~~ 
   |-3--| |---3---| 
   Q Q  Q Q  Q  E E    Q       +E    E  E E  Q 
|-------------------|---------------------------|| 
|-------------------|-------------------0-------|| 
|-11-9--------------|---------------------xs16--|| 
|------11-9---------|---------------------------|| 
|-----------11s10p9-|-10b12===(10)rs(2)---------|| 
|-------------------|---------------------------|| 
 
 
   |--3--|  |--3--|  |--3--| 
   E  E  E  E  E  E  E  E  E   E    E 
|-16----16----16----16----16-(16)\------| 
|---------------------------------------| 
|----16----16----16----16-----16\--(9)s=| 
|---------------------------------------| 
|---------------------------------------| 
|---------------------------------------| 
 
 
   |--3--|  |--3--|  |--3--| 
   E  E  E  E  E  E  E  E  E  S   S   S  S 
|----15----15----15----15----15------------| 
|-------------------------14-----14--14----| 
|-15----15----15----15----15----(15)----15s| 
|------------------------------------------| 
|------------------------------------------| 
|------------------------------------------| 
 
 
                                                                ~~~~~~ 
   |--3--|  |--3--|  |--3---|  |--3--|     |---3----| 
   E  E  E  E  E  E  S  E.  E  Q  S  S     E    E   E  +E  E E  Q. 
|----------16----16--------19-------21-|-(21)s(19)-19-(19)--------------| 
|----15--------------------------------|---------------------0-15b19====| 
|-16----16----16----16s19-----19s21----|--21s==19----------0---15b19====| 
|--------------------------------------|--------------------------------| 
|--------------------------------------|--------------------------------| 
|--------------------------------------|--------------------------------| 
 
 
    ~~~~~                ~~~~~~~~~~~     ~~~~~~~~~~~~~     ~~~~~~~~~~~ 
    |------3-----| 
   +E   +E      +E    E  E     +Q     E  E       +Q     E  E     +E    E  E  S     +S 
|--------------------12--------------12-------|--------12-------------12----14b15=(14)b16=| 
|-(15)r(15)b19=(15)r----15b19=(15)r-----15b19=|=(15)r-----15b17=(15)r----12---------------| 
|-(15)r(15)b19=(15)r--------------------------|-------------------------------------------| 
|---------------------------------------------|-------------------------------------------| 
|---------------------------------------------|-------------------------------------------| 
|---------------------------------------------|-------------------------------------------| 
 
 
    |---3---|             |-------3--------| 
   +E    E  E  E     +E   Q  Q     E      +E 
|-(14)r-12-------------------------------------| 
|----------12----------------------------------| 
|-------------14b17r(14)p12-14b15-14b15==(14)r-| 
|----------------------------------------------| 
|----------------------------------------------| 
|----------------------------------------------| 
 
   |--------3---------|       |-----3------| 
   E      +E    Q     Q       E      +E   +E  E  E 
|-------------------------------------------------------| 
|-----------------------------------------------15b17===| 
|-12b14==(12)r-14b15-14b14.5-12b14==(12)r(12)p0---------| 
|-------------------------------------------------------| 
|-------------------------------------------------------| 
|-------------------------------------------------------| 
 
    ~~~~~ 
            |--3--|  |--3--|  |--3--|    |--3--|  |--3---| 
   +E    E  E  E  E  E  E  E  E  E  E    E  E  E  E  E   E  +E   E Q 
|-------12----------------------------|-------------------------------| 
|-(15)r----15p12----12-------15p12----|-12-------15p12-(12)-----12-0--| 
|----------------15----15-14-------15-|----15-14---------0--(0)--x-0--| 
|-------------------------------------|------------------0--(0)----0--| 
|-------------------------------------|-------------------------------| 
|-------------------------------------|-------------------------------| 
 
 
   |--3--|  |--3--|  |--3--|  |--3--|    |--3--|  |--3--| 
   E  E  E  E  E  E  E  E  E  E  E  E    E  E  E  E  E  E  +Q   Q 
|-------------------------------------|-------------------------------|| 
|-12p11-------------------------------|-------------------------------|| 
|-------14-12p11----12p11----11-------|-------------------------------|| 
|----------------14-------14----12h14-|-11h12----11-------------------|| 
|-------------------------------------|-------14----12-14-(14)--------|| 
|-------------------------------------|-------------------------x\----|| 
 
 
 Chorus 
 Rhy Fig 2 
 
 
   W                 W 
  Gtr III 
   W                 W 
|-----------------|--------------------------| 
| Gtr II 
| +Q   E E Q  E E    E  E  E   E  E  E  E  E 
|-----------------|--------------------------| 
|-----------------|--9-----------14----------| 
|-----------------|-----9-(9)s14----14-------| 
|-(2)--4-2-2--4s9-|-(9)----9s=14-------14s16-| 
|-(0)--0-0-0------|--------------------------| 
|-----------------|--------------------------| 
 
 
                                             Outro 
                                              E5VII   E6VII             A5 
                                           Gtr II 
   W                                           E    E  Q       Q    E   E 
                                               |    |  |       |    |   | 
                                               /    /  /       /    x   / 
 
                              |---3---| 
   E  E a  E  E   e   E      +S   +S  S  E     Q       E    E +Q   +Q 
|------------------------------------------||-----------------------------| 
|------------------------------------------||-----------------------------| 
|--------------------11b12==(11)r(11)p9----||-11b13---11b13-9-(9)--(9)\---| 
|-------------9--11---------------------11-||-----------------------------| 
|-----7-9s11-------------------------------||-----------------------------| 
|------------------------------------------||-----------------------------| 
| 
|  E  E    E  E  +E   E       Q 
|------------------------------------------|| 
|-16---------16-(16)--x--------------------|| 
|----16---------------x--------------------|| 
|---------16-------------------------------|| 
|------------------------------------------|| 
|-----------------------------x\-----------|| 
 
 
       A6 A5      E    E5VII           E6VII E                 E5VII 
  +E E Q  Q       E    E         Q      Q      E      Q        E 
   | | |  |       |    |         |      |      |      |        | 
   / / /  /       o    /         /      /      /      x        / 
 
          |-------3--------| 
   H      Q  q       E    +E     Q      E  E  +Q         +Q 
|-----------------------------|----------------------------------| 
|-----------15b17r============|==================================| 
|-------------------15---(15)-|-12b14--14-12-(12)b14====(12)r\---| 
|-----------------------------|----------------------------------| 
|-----------------------------|----------------------------------| 
|-----------------------------|----------------------------------| 
 
 
           E6VE5VII         A5        A6       A5  A6A5 
  +E E     Q  E  E     Q      Q       Q         Q  E E 
   | |     |  |  |     |      |       |         |  | | 
   / /     /  /  x     x      /       /         /  / / 
 
                                                ~~ 
                              |----3-----| 
   Q   a a Q  E  Q.          +Q   +Q     Q      H 
|---------------19b21=====|=(19)r(19)---19pb21----------| 
|-------------------------|--------------------17-------| 
|-------------------------|-----------------------------| 
|------x------------------|-----------------------------| 
|--------x----------------|-----------------------------| 
|----------0--------------|-----------------------------| 
 
 
          A6 A5 E      E5VII         E6VII    E5VII    E E5VII 
   +E   E Q  Q   E     E    +E    E  Q          E   E  E E 
    |   | |  |   |     |     |    |  |          |   |  | | 
    /   / /  /   o     /     /    /  /          /   /  o / 
 
                                                    \3 
   +Q     Q  Q   Q          +E   +E  E  E      +E   Q. 
|------------------------|---------------------------------| 
|-(17)\---------12b14====|=(12)r(12)-----------------------| 
|------------------------|-----------9-11b12==(11)rp9------| 
|------------------------|---------------------------------| 
|------------------------|---------------------------------| 
|------------------------|---------------------------------| 
 
 
           E6VII          E5VII 
                               |-3-| 
  +E   E    Q              Q   E E E 
   |   |    |              |   | | | 
   /   /    /              /   x x x 
 
       /0___\3___/   \2.5 
            |---3----| 
  +E  +E   +E   +E  +E    +H 
|------------------------------------| 
|------------------------------------| 
|-(9)-(9)--(9)--(9)-(9)---(9)--------| 
|------------------------------------| 
|------------------------------------| 
|------------------------------------| 
 
 
  B5           A5 
  Q  Q  H      Q  Q  H      H    H      H    H 
  |            | 
  /            / 
 
  W            W            W           W 
|------------|------------:-----------:-----------: 
 
 
       In Time Q.=60 
 2/4    12/8 
           ~    ~    ~ 
  W      a Q  E Q  E Q  E Q.       E a a a E E  Q   E  Q.   +E  a a a  E  E 
|------|-------------------------|-------------^8s=^7-^7----(7)-------------: 
|------|-------------------------|---x---------^8s=^7-^7----(7)-------10-12-: 
|------|-------------------------|-----x-------^8s=^7-^7----(7)-----x-------: 
|------|-------------------------|-------x-----^7s=^6-^6----(6)---x---------: 
|------|---7--7-5--5-4--4-3tr5s==|=2-------x---^8s=^7-^7----(7)-x-----------: 
|------|-x-----------------------|------------------------------------------: 
 
 
 4/4 
   |------6------|  |------6------|  |------6------| 
   S  S  S  S  S S  S  S  S  S S  S  S  S  S S  S  S  S S  S S 
|--------------------------------------------------------------: 
|-14-12-14p12p10s9S10-14p12p10s9S10-14p12p10S9S10--------------: 
|-------------------------------------------------13p11p9----9-: 
|---------------------------------------------------------14---: 
|--------------------------------------------------------------: 
|--------------------------------------------------------------: 
 
 
 12/8 
   |-----6------|  |-----6-----| |-3-|  |-3--| 
   S  S  S S  S S  S  S S  S S S E E E  E  E E Q    Q 
|---------------------------------------------------7\---*| 
|---------------------------------------------------7\---*| 
|---------------------------------------------------7\---*| 
|-14p12p10s9-10p9---------10------------------------6\---*| 
|-----------------12p10s9----9s7s5s4s2s12s11s7s5b7--7\---*| 
|--------------------------------------------------------*| 
 
********* 
You found it at E-Chords 
Submitted By: David Campbell 
Ontario Canada  
 

		  

See also:

tabs Boston - More Than a Feeling (ver. 2) tabs Creedence Clearwater Revival - Up Around The Bend tabs Journey - Separate Ways (Worlds Apart) tabs Jimi Hendrix - Purple Haze tabs Lynyrd Skynyrd - Sweet Home Alabama tabs Jimi Hendrix - Litle Wing
e-chords

Other versions:

tabs Eddie Van Halen - Ice cream mam
auto scroll beats size up size down change color hide chords drawings
tab show chords e-chords YouTube Clip e-chords hide all tabs e-chords go to top tab

share