East West

Nephesh

East West

tabs

by  ALLYSSON

save to print version add songbook text version e-mail correct tuner
chordsukulelecavacokeyboardtabbassdrumsharmonicaflute Guitar Pro
close

there isn't a video lesson for this song

chords

Nephesh

	  		Tabbed by: Brian Frost ([email protected]) 
 
Tuning: B-F#-B-E-G#-C# 
 
I've seen a couple tabs of this song on the internet, but after seeing 
East West in concert I think this one is a little more accurate in the  
chords and timing. Rock on. 
 
Intro: 
|-----------------------------------------------------| 
|-----------------------------------------------------| 
|-7-7-7-7-7---5-5-5-5-5---8-5-7-7-7-7-7---7-7-7-7-7---| 
|-x-x-x-x-x---x-x-x-x-x---x-x-x-x-x-x-x---x-x-x-x-x---| 
|-5-5-5-5-5---3-3-3-3-3---6-3-5-5-5-5-5---5-5-5-5-5---| 
|-----------------------------------------------------| 
 
|---------------------------------------------------------| 
|---------------------------------------------------------| 
|-7-7-7-7-7---8-5-5-5-5-5---8-5-7-7-7-7-7---8-7-7-7-7-7---| 
|-x-x-x-x-x---x-x-x-x-x-x---x-x-x-x-x-x-x---x-x-x-x-x-x---| 
|-5-5-5-5-5---6-3-3-3-3-3---6-3-5-5-5-5-5---6-5-5-5-5-5---| 
|---------------------------------------------------------|   
 
Verse 1: 
|--------------------------|----------------------------| 
|--------------------------|----------------------------| 
|-7---8-5---8--5-7---8-7---|-8-7---8-5---8--5-7---8-7---| 
|-x---x-x---x--x-x---x-x---|-x-x---x-x---x--x-x---x-x---| 
|-5---6-3---6--3-5---6-5---|-6-5---6-3---6--3-5---6-5---| 
|--------------------------|----------------------------| 
 
Chorus: 
|-----------------------------------| 
|-----------------------------------| 
|-----------------------------------| 
|-0-1-0-2-0-1-0-2-0-1-0-2-0-3-0-4---| 
|-0-1-0-2-0-1-0-2-0-1-0-2-0-3-0-4---| 
|-0-1-0-2-0-1-0-2-0-1-0-2-0-3-0-4---|  (4x) 
 
Verse 2: 
|-----------------------------------------------------| 
|-----------------------------------------------------| 
|-7-7-7-7-7---5-5-5-5-5---8-5-7-7-7-7-7---7-7-7-7-7---| 
|-x-x-x-x-x---x-x-x-x-x---x-x-x-x-x-x-x---x-x-x-x-x---| 
|-5-5-5-5-5---3-3-3-3-3---6-3-5-5-5-5-5---5-5-5-5-5---| 
|-----------------------------------------------------| 
 
|-----------------------------------------------------------| 
|-----------------------------------------------------------| 
|-8-7-7-7-7-7---8-5-5-5-5-5---8-5-7-7-7-7-7---8-7-7-7-7-7---| 
|-x-x-x-x-x-x---x-x-x-x-x-x---x-x-x-x-x-x-x---x-x-x-x-x-x---| 
|-6-5-5-5-5-5---6-3-3-3-3-3---6-3-5-5-5-5-5---6-5-5-5-5-5---| 
|-----------------------------------------------------------|  
 
|----------------------------|------------------------------| 
|----------------------------|------------------------------| 
|-8-7---8-5---8--5-7---8-7---|-8/5\8-7---8-5---8--5-7-------| 
|-x-x---x-x---x--x-x---x-x---|-x/x\x-x---x-x---x--x-x-------| 
|-6-5---6-3---6--3-5---6-5---|-6/3\6-5---6-3---6--3-5-------| 
|----------------------------|------------------------------| 
 
Chorus... 
 
Bridge: 
|----------------| 
|----------------| 
|----------------| 
|-0-0-0---0--0---| 
|-0-0-0---0--0---| 
|-0-0-0---0--0---| (9x) 
  x x x   x  x 
 
Solo: 
|--------------------------------------------------------------------------| 
|--------------------------------------------------------------------------| 
|--------------------------------------------------------------------------| 
|-8-8-8-8-8-7-------8-8-8-8-8-5-------8-8-8-8-8-7-------7-7-7-7-7-7--------| 
|-------------0-0-0-------------0-0-0-------------0-0-0-------------0-0-0--| 
|-------------0-0-0-------------0-0-0-------------0-0-0-------------0-0-0--| (2x) 
              x x x             x x x             x x x             x x x 
 
Chorus... 
 
Outro: 
|-15---15/16\15------12-----| 
|---------------15-------15-| 
|---------------------------| 
|---------------------------| 
|---------------------------| 
|---------------------------| (4x) 

		  

See also:

tabs East West - Nephesh tabs Bryan Adams - Back To You Unplugged tabs Justin Bieber - Sorry (acoustic) tabs Bryan Adams - Have you ever loved a woman tabs Carly Rae Jepsen - Call Me Maybe tabs Celine Dion - My Heart Will Go On (ver. 2)
e-chords

Other versions:

tabs East West - Nephesh
auto scroll beats size up size down change color hide chords drawings
tab show chords e-chords YouTube Clip e-chords hide all tabs e-chords go to top tab

share