Hot Hot Heat

Talk To Me Dance With Me Tab

Hot Hot Heat

Difficulty: nolevelnolevel

by Novembers+Shame

tuner correct add songbook print version text version save to e-mail
chordsukulelecavacokeyboardtabbassdrumsharmonicsflute Guitar Pro
close

there isn't a video lesson for this song

chords

Talk To Me Dance With Me

  		VERSE 
(come in with vocals) 
 
G--------------------------------10h11p10--------6-------------- 
D---4-4-4---446-6-6----668-8-8-------------8-8-8----6-----------  X4 
A----------4----------6----------------------------------------- 
E--------------------------------------------------------------- 
 
REST for the length of one of the above verse riffs 
 
BRIDGE (?) 
"so perfect..." 
 
G--------------------------------------------------------------- 
D---4--4--4--4--6--6--6--6--8--8--8--8--8--8--6--6--------------  X2 
A--------------------------------------------------------------- 
E--------------------------------------------------------------- 
 
then back to the verse another X3 then... 
 
G--------------------------------------------------------------- 
D---4-4-4---446-6-6----668-8-8---88--8-8-8---88-----------------  X1 
A----------4----------6----------------------------------------- 
E--------------------------------------------------------------- 
 
REST for the length of two of the verse riffs 
 
then back to the verse again another X3 then end on... 
 
G--------------------------------------------------------------- 
D---4-4-4---446-6-6----668-8-8---88--8-8-8---88----------------- X1 
A----------4----------6----------------------------------------- 
E--------------------------------------------------------------- 

	  

auto scroll beats size up size down change color hide chords drawings
tab show chords e-chords YouTube Clip e-chords hide all tabs e-chords go to top tab

share with facebook

Search Paypal