Downfall Of Gaia

Prolog Odium

Downfall Of Gaia

tabs

by  JOAOEWERTON

save to print version add songbook text version e-mail correct tuner
chordsukulelecavacokeyboardtabbassdrumsharmonicaflute Guitar Pro
close

there isn't a video lesson for this song

chords

Prolog Odium

	  		

Prolog 
 come in after 4 times  
d#----------------|    /----------------------------------------------------------| 
A#----------------|    |----------------------------------------------------------| 
F#-------9--------|    |-------------------------------------------7-7-7-7-7-7----| 
C#-0---7---8--5---|x10 |-7-7-7-7-7-7-7-7-7-8-8-8-10-10-10-10-10-10----------------| 
G#-0--------------|    |----------------------------------------------------------| 
C#-0--------------|    |----------------------------------------------------------| 
                   
|-------------------------------------------------------------| 
|-------------------------------------------------------------| 
|-------------------------------------------15-15-15-14-14-14-| 
|-7-7-7-7-7-7-7-7-7-8-8-8-10-10-10-10-10-10-------------------|x2  
|-------------------------------------------------------------| 
|-------------------------------------------------------------| 

|------------------------------------------------------|   |-----| 
|------------------------------------------------------|   |-----| 
|-15---14--12---10-----9----15---14--12---10----14-----|   |-----| 
|------------------------------------------------------|x2 |--15-| 
|------------------------------------------------------|   |--0--| 
|------------------------------------------------------|   |--0--| 
|------------------------------------------------------|   |--0--| 

Odium 

d#---------------------------------------------------| 
A#---------------------------------------------------| 
F#-10-10-10-10-10-9-9-9-9-9-10-10-10-10-10-9-9-9-----|        
C#-8--8--8--8--8--8-8-8-8-8-7--7--7--7--7--7-7-7-----|x2      
G#-----------------------------------------------10--|        
C#---------------------------------------------------|         

d#-----------------------------/-------------------------------------------------------------------\ 
A#-----------------------------|-------------------------------------------------------------------| 
F#----10-9--------9--7-----10-9|-15-15-15-15-15-15-14-14-14-14-14-14-10-10-10-10-10-10-12-12-12-9-9| 
C#-0--7--7---0----7--7--0--7--7|-0--0--0--0--0--0--0--0--0--0--0--0--0--0--0--0--0--0--0--0--0--0-0| 
G#-0---------0----------0------|-0--0--0--0--0--0--0--0--0--0--0--0--0--0--0--0--0--0--0--0--0--0-0| 
C#-0---------0----------0------\-0--0--0--0--0--0--0--0--0--0--0--0--0--0--0--0--0--0--0--0--0--0-0/ 
                                | 
                               /--------------------------------------------------------------------| 
This whole                    |---------------------------------------------------------------------| 
section          2nd guitar   |---------------------------------------------------------------------| 
4 times          plays this   |-3--3--3--3--3--3--3--3--3--3--3--3--3--3--3--3--3--3--3--3--3--3--3-| 
                              |-3--3--3--3--3--3--3--3--3--3--3--3--3--3--3--3--3--3--3--3--3--3--3-| 
                              \-3--3--3--3--3--3--3--3--3--3--3--3--3--3--3--3--3--3--3--3--3--3--3-| 

d#--------------------------------------------------------\ 
A#--------------------------------------------------------| 
F#-12-12-12-12-12-12-12-12-10-10-10-10-10-10-10-10--------| 
C#-10-10-10-10-10-10-10-10-8--8--8--8--8--8--8--8--2-0-2--| 
G#-------------------------------------------------2-0-2--| 
C#-------------------------------------------------2-0-2--/ 

d#------------------------------------------------------------------------| 
A#------------------------------------------------------------------------| 
F#-----------10-9----------12-11---9---7----------------------------------| 
C#-0---------x--x----------x--x----x-0-x-0-8-8-8-8-8-10-10-10-10-10-10-10-|x4 
G#-0---------8--7----------10-9----7-0-5-0-8-8-8-8-8-10-10-10-10-10-10-10-| 
C#-0-0-0-0-0-------0-0-0-0-------0-0-0-0-0-8-8-8-8-8-10-10-10-10-10-10-10-| 

d#------------------------------------------------3-3-3-3--| 
F#-10-10-10-10-10-10-121212121212-5-5-5-5-5-5-5-5-5-5-5-5--| 
A#-9--9--9--9--9--9--9-9-9-9-9-9--3-3-3-3-3-3-3-3-3-3-3-3--| 
C#-7--7--7--7--7--7--9-9-9-9-9-9--3-3-3-3-3-3-3-3-3-3-3-3--|x4 
G#-7--7--7--7--7--7--9-9-9-9-9-9--3-3-3-3-3-3-3-3-3-3-3-3--| 
C#-7--7--7--7--7--7--9-9-9-9-9-9--3-3-3-3-3-3-3-3-3-3-3-3--| 

d#-------------------------------|  |-------------------------\ 
F#-------------------------------|  |-------------------------| 
A#-10-10-10-10-10-10-7-7-7-7-7-7-|  |-7-7-7-7-7-7-6-----------|   
C#-7--7--7--7--7--7--7-7-7-7-7-7-|x2|-4-4-4-4-4-4-4-7-7-7-7-7-|   x6 of this whole section 
G#-0--0--0--0--0--0--0-0-0-0-0-0-|  |-4-4-4-4-4-4-4-4-4-4-4-4-| 
C#-0--0--0--0--0--0--0-0-0-0-0-0-|  |-4-4-4-4-4-4-4-4-4-4-4-4-/ 

d#-------------------------------------------\        -------------------------\ 
F#-------------------------------------------    the  -8----8-----6--------5---| 
A#---------------------------------------(0)-   lead  -------------------------|      x10 of  
C#------------------------------2-----2------   plays -------------------------|      this 
G#---5/7-8-7-----5/7-8-7\3-------------------    this -------------------------|     whole  
C#-0-----------0-------------3-----2---------/        -------------------------/    section 

d#------------------------------------------------3-3-3-3--| 
F#-10-10-10-10-10-10-121212121212-5-5-5-5-5-5-5-5-5-5-5-5--| 
A#-9--9--9--9--9--9--9-9-9-9-9-9--3-3-3-3-3-3-3-3-3-3-3-3--| 
C#-7--7--7--7--7--7--9-9-9-9-9-9--3-3-3-3-3-3-3-3-3-3-3-3--|x3 
G#-7--7--7--7--7--7--9-9-9-9-9-9--3-3-3-3-3-3-3-3-3-3-3-3--| 
C#-7--7--7--7--7--7--9-9-9-9-9-9--3-3-3-3-3-3-3-3-3-3-3-3--| 


d#----------------------------------------------------------------------------------| 
F#-10-10-10-10-10-10-121212121212---------------------------------------------------| 
A#-9--9--9--9--9--9--9-9-9-9-9-9--9-9-9-9-9-9-9-7-7-7-7-7-7-------------------------| 
C#-7--7--7--7--7--7--9-9-9-9-9-9--7-7-7-7-7-7-7-5-5-5-5-5-5-3-3-3-3-3-3-2-2-2-2-2-2-| 
G#-7--7--7--7--7--7--9-9-9-9-9-9--7-7-7-7-7-7-7-5-5-5-5-5-5-3-3-3-3-3-3-2-2-2-2-2-2-| 
C#-7--7--7--7--7--7--9-9-9-9-9-9--7-7-7-7-7-7-7-5-5-5-5-5-5-3-3-3-3-3-3-2-2-2-2-2-2-| 

d#-------------------------------------------------------------------------------------\ 
F#----------------------------------------131313131313-151515151515--------------------| 
A#-101010101010-9-5-5-5-5-5-5-4-4-4-4-4-4-x-x-x-x-x-x--x-x-x-x-x-x--5-5-5-5-5--4----2--| 
C#-7-7-7-7-7-7--7-3-3-3-3-3-3-2-2-2-2-2-2-101010101010-121212121212-3-3-3-3-2--2----0--| 
G#-7-7-7-7-7-7--7-3-3-3-3-3-3-2-2-2-2-2-2---------------------------3-3-3-3-2--2----0--| 
C#-7-7-7-7-7-7--7-3-3-3-3-3-3-2-2-2-2-2-2---------------------------3-3-3-3-2--2----0--/ 
		  

See also:

tabs Deep Purple - The Battle Rages On tabs Albert Hammond Jr - Miss Myrtle tabs Deep Purple - Rat Bat Blues tabs Albert Hammond Jr - Spooky Couch tabs Ira! - Tarde Vazia (Acústico) tabs Deep Purple - Stormbringer
e-chords

Other versions:

tabs Downfall Of Gaia - Prolog Odium
auto scroll beats size up size down change color hide chords drawings
tab show chords e-chords YouTube Clip e-chords hide all tabs e-chords go to top tab

share