Doobie Brothers

Long Train Runnin'

Doobie Brothers

tabs

save to print version add songbook text version e-mail correct tuner
chordsukulelecavacokeyboardtabbassdrumsharmonicaflute Guitar Pro
close

there isn't a video lesson for this song

chords

Long Train Runnin'

	  		Intro

|-10-----10--10--10--x--x--x---10--10--10-|
|-10h11--11--11--11--x--x--x---11--11--10-|
|-10-----10--10--10--x--x--x---10--10--10-|
|-10h12--12--12--12--x--x--x---12--12--10-|
|-10-----10--10--10--x--x--x---10--10--10-|
|-----------------------------------------|

|-10-----10--10--x--x--x---10--10--10-|
|-10h11--11--11--x--x--x---11--11--10-|
|-10-----10--10--x--x--x---10--10--10-|
|-10h12--12--12--x--x--x---12--12--10-|
|-10-----10--10--x--x--x---10--10--10-|
|-------------------------------------|

|-10-----10--10--10--x--x--x---10--10--10-|
|-10h11--11--11--11--x--x--x---11--11--10-|
|-10-----10--10--10--x--x--x---10--10--10-|
|-10h12--12--12--12--x--x--x---12--12--10-|
|-10-----10--10--10--x--x--x---10--10--10-|
|-----------------------------------------|

|-10-----10--10--x--x--x---10--10--10-|
|-10h11--11--11--x--x--x---11--11--10-|
|-10-----10--10--x--x--x---10--10--10-|
|-10h12--12--12--x--x--x---12--12--10-|
|-10-----10--10--x--x--x---10--10--10-|
|-------------------------------------|



Verse

4x
|-10-----10--10--x--x---10--10--10-|
|-10h11--11--11--x--x---11--11--10-|
|-10-----10--10--x--x---10--10--10-|
|-10h12--12--12--x--x---12--12--10-|
|-10-----10--10--x--x---10--10--10-|
|----------------------------------|

		  

See also:

tabs Doobie Brothers - Jesus Is Just Alright tabs Journey - Don't Stop Believin' tabs Jimi Hendrix - Purple Haze tabs Janis Joplin - Summertime tabs Lynyrd Skynyrd - Simple man (middle part) tabs Jimi Hendrix - Fire
e-chords

Other versions:

tabs Zeke - Long Train Runnin tabs Doobie Brothers - Long Train Runnin'
auto scroll beats size up size down change color hide chords drawings
tab show chords e-chords YouTube Clip e-chords hide all tabs e-chords go to top tab

share