Dirty Projectors

Because Your Light Is Turning Green

Dirty Projectors

tabs

by  CARLLUZ

save to print version add songbook text version e-mail correct tuner
chordsukulelecavacokeyboardtabbassdrumsharmonicaflute Guitar Pro
close

there isn't a video lesson for this song

chords

Because Your Light Is Turning Green

	  		

intro 

e|--------------------------|| 
B|-2-----------3------------|| 
G|-2-----2-----2-----1-----o|| 
D|-------2-----------2-----o|| 
A|----0-----0-----0-----0---|| 
E|--------------------------|| 

play that measure twice for the intro. 

you also play that for the first verse, and all the verses. 

----- 

Chorus 

e|-------------------------|------------------------|-------------------?----| 
B|-3-----10-----3-----9----|-3-----7-----1-----7----|-1-----7-----9-----5----| 
G|-2-----8------2-----7----|-2-----5-----2-----5----|-2-----5-----7----------| 
D|-4-----10-----4-----9----|-3-----7-----1-----7----|-1-----7-----9-----2----| 
A|----0------0-----0-----0-|----0-----0-----0-----0-|----0-----0-----0-----0-| 
E|-------------------------|------------------------|------------------------| 

e|--------------------------|| 
B|-3-----9-----10-----5----o|| 
G|-4-----7-----9------6-----|| 
D|-2-----9-----11-----7-----|| 
A|----0-----0------0-----0-o|| 
E|--------------------------|| 

the last measure is also the outro, just repeat it over and over again. 

not super interested in the guitar solo right now, even though it is pretty cool. just  
figured out the Chorus so I thought I would share. 

M 

************************************ 

| /   slide up 
| \   slide down 
| h   hammer-on 
| p   pull-off 
| ~   vibrato 
| +   harmonic 
| x   Mute note 
| b   Bend 
| pb  Pre-bend 
| br  Bend release 
| pbr Pre-bend release 
| brb Bend release bend 

************************************ 
		  

See also:

tabs Ben Harper - Diamonds on inside tabs Red Hot Chili Peppers - Scar Tissue (ver. 2) tabs Red Hot Chili Peppers - The Zephyr Song tabs Red Hot Chili Peppers - I Could Die For You tabs Red Hot Chili Peppers - Give It Away tabs Red Hot Chili Peppers - Scar Tissue
e-chords

Other versions:

tabs Dirty Projectors - Because Your Light Is Turning Green
auto scroll beats size up size down change color hide chords drawings
tab show chords e-chords YouTube Clip e-chords hide all tabs e-chords go to top tab

share