Dick dale

James Bond Theme

Dick dale

tabs Easy easy

by  ELEPHANTE

save to print version add songbook text version e-mail correct tuner
chordsukulelecavacokeyboardtabbassdrumsharmonicaflute Guitar Pro
close

there isn't a video lesson for this song

chords

James Bond Theme

	  		intro 
e|------------------------------- 
B|------------------------------- 
G|------------------------------- 
D|------------------------------- 
A|-2---3---4---3---2---3---4---3- 
E|------------------------------- 
 
e|------------------------------- 
B|------------------------------- 
G|------------------------------- 
D|------------------------------- 
A|------------------------------- 
E|-0-222--000-0-3333-222--------- (2x) 
 
e|------------------------------- 
B|------------------------------- 
G|------------------------------- 
D|-2-0~-------------------------- 
A|--------2-0-2------------------ 
E|------------------------------- 
 
solo 
e|---------------------------------- 
B|---------------------------------- 
G|------8-7------3-4---------------- 
D|---5---------5--------5~4-----4--- 
A|7--------------------------2----4- 
E|---------------------------------- 
 
e|---------------------------------- 
B|---------------------------------- 
G|------8-7------3-4---------------- 
D|---5---------5--------5~4-----1-2- 
A|7--------------------------2----- 
E|---------------------------------- 
 
solo(outro) 
e|-----11-10-----6-7---------------- 
B|---8---------8--------8~7-----5-2- 
G|9--------------------------4------ 
D|---------------------------------- 
A|---------------------------------- 
E|---------------------------------- 
 
e|-----11-10-----6-7---------------- 
B|---8---------8--------8~7-----4-5- 
G|9--------------------------4------ 
D|---------------------------------- 
A|---------------------------------- 
E|---------------------------------- 
 
 
e|------------------------------------------------ 
B|------------------------------------------------ 
G|--------------------------------4-4---4-4---4-4- 
D|2-2--2-4-2-4-5-5--5-4-2-4-(2x)------------------ 
A|------------------------------------2-----2----- 
E|------------------------------------------------ 
 
 
repeat intro 
 
e|------------------------------------------11-10-|-2-| 
B|---------------------------------------8--------|-2-| 
G|-----8-7--------11-10---------15-14--9----------|-4-| 
D|--5----------8------------12--------------------|-4-| 
A|7---------10-----------14-----------------------|-2-| 
E|------------------------------------------------|-2-| 
 
thats the correct tab ;) 
just if, [email protected] 

		  

See also:

tabs Avenged Sevenfold - Chapter Four tabs Tenacious D - Its A Long Way To The Top tabs Tenacious D - One Note Song tabs Quiet Riot - Come on feel the noise (com solo) tabs Tenacious D - Tribute (ver. 1) tabs New Found Glory - My heart will go on
e-chords

Other versions:

tabs Soundtracks - James Bond - Theme tabs Dick dale - James Bond Theme tabs James Bond - James Bond Theme tabs john barry - James Bond Theme tabs James Bond - James Bond Theme (ver. 2) tabs James Bond - James bond theme true
auto scroll beats size up size down change color hide chords drawings
tab show chords e-chords YouTube Clip e-chords hide all tabs e-chords go to top tab

share