Dick dale

Miserlou 2

Dick dale

tabs Advanced advanced

by  CARLOS_RPM

save to print version add songbook text version e-mail correct tuner
chordsukulelecavacokeyboardtabbassdrumsharmonicaflute Guitar Pro
close

there isn't a video lesson for this song

chords

Miserlou 2

	  		                                 Miserlou                                      
 
 
                       
E||------------------| 
B||------------------| 
G||------------------| 
D||------------------| 
A||------------------| 
E||------------------| 
 
 
----------------------------------------------------------------------------------| 
----------------------------------------------------------------------------------| 
----------------------------------------------------------------------------------| 
----------------------------------------------------------------------------------| 
----------------------------------------------------------------------------------| 
--0-0-0-0-0-0-0-0-0-0-0-0-0-0-0-0-0-0-0-0-0-0-0-0-0-0-0-0-0-0-0-0-| 
 
-------------------------------------------------------------------------------------| 
-------------------------------------------------------------------------------------| 
-------------------------------------------------------------------------------------| 
-------------------------------------------------------------------------------------| 
-------------------------------------------------------------------------------------| 
-0-0-0-0-0-0-0-0-4-4-4-4-5-5-5-5-7-7-7-7-7-7-7-10-10-10-10-8-8-8-8-| 
 
----------------------------------------------------------------------------------| 
----------------------------------------------------------------------------------| 
----------------------------------------------------------------------------------| 
----------------------------------------------------------------------------------| 
----------------------------------------------------------------------------------| 
-7-7-7-7-7-7-7-7-7-7-7-7-7-7-7-7-7-7-7-7-7-7-7-7-7-7-7-7-7-7-7-7-7| 
 
-------------------------------------------------------------------------------------| 
-------------------------------------------------------------------------------------| 
-------------------------------------------------------------------------------------| 
-------------------------------------------------------------------------------------| 
-------------------------------------------------------------------------------------| 
-0-0-0-0-0-0-0-0-4-4-4-4-5-5-5-5-7-7-7-7-7-7-7-10-10-10-10-8-8-8-8-| 
 
----------------------------------------------------------------------------------| 
----------------------------------------------------------------------------------| 
----------------------------------------------------------------------------------| 
----------------------------------------------------------------------------------| 
----------------------------------------------------------------------------------| 
-7-7-7-7-7-7-7-7-7-7-7-7-7-7-7-7-7-7-7-7-7-7-7-7-7-7-7-7-7-7-7-7-7| 
 
-------------------------------------------------------------------------------------------| 
-------------------------------------------------------------------------------------------| 
--------------------------------------------------------------------------------------------| 
-------------------------------------------------------------------------------------------| 
--------------------------------------------------------------------------------------------| 
--8-8-8-8-7-7-8-8-7-7-7-7-5-5-5-5-7-7-7-7-5-5-7-7-5-5-5-5-4-4-4-4-1-1-1-1-| 
 
----------------------------------------------------------------------------------| 
----------------------------------------------------------------------------------| 
----------------------------------------------------------------------------------| 
----------------------------------------------------------------------------------| 
----------------------------------------------------------------------------------| 
--4-4-4-4-4-4-4-4-4-4-4-4-4-4-4-4-4-4-4-4-4-4-4-4-4-4-4-4-4-4-4-4-| 
 
 
 
 
-------------------------------------------------------------------------------------------| 
-------------------------------------------------------------------------------------------| 
--------------------------------------------------------------------------------------------| 
-------------------------------------------------------------------------------------------| 
--------------------------------------------------------------------------------------------| 
--8-8-8-8-7-7-8-8-7-7-7-7-5-5-5-5-7-7-7-7-5-5-7-7-5-5-5-5-4-4-4-4-1-1-1-1-| 
 
--0-0-0-0-0-0-0-0-4-4-4-4-5-5-5-5-7-7-7-7-7-7-7-0-11-11-11-11-8-8-8-8-| 
----------------------------------------------------------------------------------------| 
----------------------------------------------------------------------------------------| 
----------------------------------------------------------------------------------------| 
----------------------------------------------------------------------------------------| 
----------------------------------------------------------------------------------------| 
 
--7-7-7-7-7-7-7-7-7-7-7-7-7-7-7-7-7-7-7-7-7-7-7-7-7-7-7-7-7-7-7-7-| 
----------------------------------------------------------------------------------| 
----------------------------------------------------------------------------------| 
----------------------------------------------------------------------------------| 
----------------------------------------------------------------------------------| 
----------------------------------------------------------------------------------| 
 
 
                                                                        
--0-0-0-0-0-0-0-0-4-4-4-4-5-5-5-5-7-7-7-7-7-7-7-0-11-11-11-11-8-8-8-8-| 
----------------------------------------------------------------------------------------| 
----------------------------------------------------------------------------------------| 
----------------------------------------------------------------------------------------| 
----------------------------------------------------------------------------------------| 
----------------------------------------------------------------------------------------| 
 
 
                                                                    
--7-7-7-7-7-7-7-7-7-7-7-7-7-7-7-7-7-7-7-7-7-7-7-7-7-7-7-7-7-7-7-7-| 
----------------------------------------------------------------------------------| 
----------------------------------------------------------------------------------| 
----------------------------------------------------------------------------------| 
----------------------------------------------------------------------------------| 
----------------------------------------------------------------------------------| 
 
 
                                                                            
 
--8-8-8-8-7-7-8-8-7-7-7-7-5-5-5-5-7-7-7-7-5-5-7-7-5-5-5-5-4-4-4-4-1-1-1-1-| 
--------------------------------------------------------------------------------------------| 
--------------------------------------------------------------------------------------------| 
--------------------------------------------------------------------------------------------| 
--------------------------------------------------------------------------------------------| 
--------------------------------------------------------------------------------------------| 
 
 
                                                                    
 
 
--4-4-4-4-4-4-4-4-4-4-4-4-4-4-4-4-4-4-4-4-4-4-4-4-4-4-4-4-4-4-4-4-| 
----------------------------------------------------------------------------------| 
----------------------------------------------------------------------------------| 
----------------------------------------------------------------------------------| 
----------------------------------------------------------------------------------| 
----------------------------------------------------------------------------------| 
 
 
                                                                            
--8-8-8-8-7-7-8-8-7-7-7-7-5-5-5-5-7-7-7-7-5-5-7-7-5-5-5-5-4-4-4-4-1-1-1-1-| 
--------------------------------------------------------------------------------------------| 
--------------------------------------------------------------------------------------------| 
--------------------------------------------------------------------------------------------| 
--------------------------------------------------------------------------------------------| 
--------------------------------------------------------------------------------------------| 
 
-----------------------------------------------------------------------------------| 
-----------------------------------------------------------------------------------| 
-----------------------------------------------------------------------------------| 
-----------------------------------------------------------------------------------| 
-----------------------------------------------------------------------------------| 
-5-5-5-5-5-5-5-5-5-5-5-5-5-5-5-5-5-5-5-5-5-5-5-5-5-5-5-5-5-4-4-5-5-| 
 
 
                                                                    
----------------------------------------------------------------------------------| 
----------------------------------------------------------------------------------| 
----------------------------------------------------------------------------------| 
----------------------------------------------------------------------------------| 
----------------------------------------------------------------------------------| 
-7-7-7-7-7-7-7-7-7-7-7-7-7-7-7-7-7-7-7-7-7-7-7-7-7-7-7-7-7-7-7-7-7| 
 
 
                                                                    
----------------------------------------------------------------------------------------| 
----------------------------------------------------------------------------------------| 
----------------------------------------------------------------------------------------| 
----------------------------------------------------------------------------------------| 
----------------------------------------------------------------------------------------| 
--8-8-8-8-8-8-8-8-8-8-8-8-7-7-8-8-10-10-10-10-10-10-10-10-10-7-7-7-7-| 
 
 
----------------------------------------------------------------------------------| 
----------------------------------------------------------------------------------| 
----------------------------------------------------------------------------------| 
----------------------------------------------------------------------------------| 
----------------------------------------------------------------------------------| 
--0-0-0-0-0-0-0-0-0-0-0-0-0-0-0-0-0-0-0-0-0-0-0-0-0-0-0-0-0-0-0-0-| 
 
 
 
----------------------------------------------------------------------------------| 
----------------------------------------------------------------------------------| 
----------------------------------------------------------------------------------| 
----------------------------------------------------------------------------------| 
----------------------------------------------------------------------------------| 
-7-7-7-7-7-7-7-7-7-7-7-7-7-7-7-7-7-7-7-7-7-7-7-7-7-7-7-7-7-7-7-7-7| 
 
--------------------------------------------------------------------------------------------------------------------| 
--------------------------------------------------------------------------------------------------------------------| 
--------------------------------------------------------------------------------------------------------------------| 
--------------------------------------------------------------------------------------------------------------------| 
--------------------------------------------------------------------------------------------------------------------| 
--------------------------------------------------------------------------------------------------------------------| 
--13-13-13-13-12-12-13-13-12-12-10-10-10-10-12-12-12-12-10-10-12-12-10-10-10-10-8-8-8-8-| 
 
----------------------------------------------------------------------------------| 
----------------------------------------------------------------------------------| 
----------------------------------------------------------------------------------| 
----------------------------------------------------------------------------------| 
----------------------------------------------------------------------------------| 
-7-7-7-7-7-7-7-7-7-7-7-7-7-7-7-7-7-7-7-7-7-7-7-7-7-7-7-7-7-7-7-7-7| 
 
-----------------------------------------------------------------------| 
-----------------------------------------------------------------------| 
-----------------------------------------------------------------------| 
-----------------------------------------------------------------------| 
-----------------------------------------------------------------------| 
--8-8-8-8-7-7-8-8-7-7-7-7-5-5-5-5-7-7-7-7-5-5-7-7-5-4--1--| 
 
--0-0-0-0-0-0-0-0-4-4-4-4-5-5-5-5-7-7-7-7-7-7-7-0-11-11-11-11-8-8-8-8-| 
----------------------------------------------------------------------------------------| 
----------------------------------------------------------------------------------------| 
----------------------------------------------------------------------------------------| 
----------------------------------------------------------------------------------------| 
----------------------------------------------------------------------------------------| 
 
                                                                    
--7-7-7-7-7-7-7-7-7-7-7-7-7-7-7-7-7-7-7-7-7-7-7-7-7-7-7-7-7-7-7-7-| 
----------------------------------------------------------------------------------| 
----------------------------------------------------------------------------------| 
----------------------------------------------------------------------------------| 
----------------------------------------------------------------------------------| 
----------------------------------------------------------------------------------| 
 
--0-0-0-0-0-0-0-0-4-4-4-4-5-5-5-5-7-7-7-7-7-7-7-0-11-11-11-11-8-8-8-8-| 
----------------------------------------------------------------------------------------| 
----------------------------------------------------------------------------------------| 
----------------------------------------------------------------------------------------| 
----------------------------------------------------------------------------------------| 
----------------------------------------------------------------------------------------| 
 
 
 
                                                                    
--7-7-7-7-7-7-7-7-7-7-7-7-7-7-7-7-7-7-7-7-7-7-7-7-7-7-7-7-7-7-7-7-| 
----------------------------------------------------------------------------------| 
----------------------------------------------------------------------------------| 
----------------------------------------------------------------------------------| 
----------------------------------------------------------------------------------| 
----------------------------------------------------------------------------------| 
 
 
                                                                            
--8-8-8-8-7-7-8-8-7-7-7-7-5-5-5-5-7-7-7-7-5-5-7-7-5-5-5-5-4-4-4-4-1-1-1-1-| 
--------------------------------------------------------------------------------------------| 
--------------------------------------------------------------------------------------------| 
--------------------------------------------------------------------------------------------| 
--------------------------------------------------------------------------------------------| 
--------------------------------------------------------------------------------------------| 
 
 
                                                                    
--4-4-4-4-4-4-4-4-4-4-4-4-4-4-4-4-4-4-4-4-4-4-4-4-4-4-4-4-4-4-4-4-| 
----------------------------------------------------------------------------------| 
----------------------------------------------------------------------------------| 
----------------------------------------------------------------------------------| 
----------------------------------------------------------------------------------| 
----------------------------------------------------------------------------------| 
 
 
                                                                            
--8-8-8-8-7-7-8-8-7-7-7-7-5-5-5-5-7-7-7-7-5-5-7-7-5-5-5-5-4-4-4-4-1-1-1-1-| 
--------------------------------------------------------------------------------------------| 
--------------------------------------------------------------------------------------------| 
--------------------------------------------------------------------------------------------| 
--------------------------------------------------------------------------------------------| 
--------------------------------------------------------------------------------------------| 
 
 
 

		  

See also:

tabs X-files - Theme Song tabs Eddie Cochran - Summer time blues tabs Tenacious D - Wonderboy (ver. 1) tabs Poison - Unskinny Bop tabs Tenacious D - Her Gently tabs The Donnas - Take It Off
e-chords

Other versions:

tabs Dick dale - Miserlou 2
auto scroll beats size up size down change color hide chords drawings
tab show chords e-chords YouTube Clip e-chords hide all tabs e-chords go to top tab

share