Dick dale

Tidal Wave

Dick dale

tabs Beginner beginner

by  ELEPHANTE

save to print version add songbook text version e-mail correct tuner
chordsukulelecavacokeyboardtabbassdrumsharmonicaflute Guitar Pro
close

there isn't a video lesson for this song

chords

Tidal Wave

	  		G|-8/9 
 
e|--------------------------------------- 
B|--------------------------------------- 
G|--------------------------------------- 
D|--------------------------------------- 
A|---------5----------------------------- 
E|0-3-5-7----7-5-3-5---6-3--0------------ 
 
e|--------------------------------------- 
B|--------------------------------------- 
G|--------------------------------------- 
D|---------------------------5--7-5-7-8-9 
A|-----------5---5---7-5-7--------------- 
E|0--3--5--7---7------------------------- 
 
 
e|--------------------------------------- 
B|--------------------------------------- 
G|--------------------------------------- 
D|----------------------5--9--8-7-------- 
A|---------5---5--7-5-7------------------ 
E|0-3-5-7----7--------------------------- 
 
 
e|--------------------------------------- 
B|--------------------------------------- 
G|---------------------------------(8~9)- 
D|--------------------------------------- 
A|---------5----------------------------- 
E|0-3-5-7----7-5-3-5---5~-3--0----------- 
 
BYMYSELF 

		  

See also:

tabs X-files - Theme Song tabs Eddie Cochran - Summer time blues tabs Tenacious D - Wonderboy (ver. 1) tabs Poison - Unskinny Bop tabs Tenacious D - Her Gently tabs The Donnas - Take It Off
e-chords

Other versions:

tabs Dick dale - Tidal Wave tabs Thee Oh Sees - Tidal Wave
auto scroll beats size up size down change color hide chords drawings
tab show chords e-chords YouTube Clip e-chords hide all tabs e-chords go to top tab

share