Dick dale

home > Dick dale

A Run For Life Tab

Dick dale

Difficulty: nolevelnolevel

by VsWorld

tuner correct add songbook print version text version save to e-mail
chordsukulelecavacokeyboardtabbassdrumsharmonicsflute Guitar Pro
chords

A Run For Life

  		|---0~~~3~~~2~~~1~~~-0~~~~-| 
|---0~~~3~~~2~~~1~~~-0~~~~-| 
|---0~~~4~~~3~~~2~~~-0~~~~-| 
|---2~~~5~~~4~~~3~~~-2~~~~-| 
|---2~~~5~~~4~~~3~~~-2~~~~-| 
|---0~~~3~~~2~~~1~~~-0~~~~-| 

|---------------------------|-----------------|-------------------------------| 
|----------------------1----|-------------1-0-|-------------------------------| 
|-------2-----2-2-2-2-----2-|----------2------|-0---0--------------0----------| 
|---14/---2-----------------|--2-2-2-2--------|---3---3-2222222--3---3-222222-| 
|---------------------------|-----------------|-------------------------------| 
|---------------------------|-----------------|-------------------------------| 

|---------------------------|-----------------|-------------------------------| 
|----------------------1----|-------------1-0-|-------------------------------| 
|-------2-----2-2-2-2-----2-|----------2------|-0---0--------------0----------| 
|---14/---2-----------------|--2-2-2-2--------|---3---3-2222222--3---3-222222-| 
|---------------------------|-----------------|-------------------------------| 
|---------------------------|-----------------|-------------------------------| 

|-------------------|-----------------|---0---0---------------| 
|-------------------|---0---0---0---0-|-3---3----1-0---0-1----| 
|---------------1-2-|-4---4---4---4---|--------------2-----2--| 
|-------------2-----|-----------------|-----------------------| 
|-------------------|-----------------|-----------------------| 
|---14/-0--0--------|-----------------|-----------------------| 

|-------0------------0~~--------0~~--| 
|---0-1---3-1------------------------| 
|--------------2-1-2-----------------| 
|----------------------------2-------| 
|------------------------------------| 
|-------------------------0----------| 

|---------------|-----------------|---0---0---------------| 
|---------------|---0---0---0---0-|-3---3----1-0---0-1----| 
|-----------1-2-|-4---4---4---4---|--------------2-----2--| 
|---------2-----|-----------------|-----------------------| 
|---------------|-----------------|-----------------------| 
|------0--------|-----------------|-----------------------| 

|----------------------------------------------| 
|---0-1111111-0-11111-44444-11111-44444-555555-| 
|----------------------------------------------| 
|----------------------------------------------| 
|----------------------------------------------| 
|----------------------------------------------| 

|---0--0--1--3--1--0---|-------------|----------------------------| 
|---0--0-------------0-|-3--1--0-1---|---0-1-3-1-0----------------| 
|----------------------|-----------1-|-2-----------2--1-----------| 
|----------------------|-------------|-------------------3--22222-| 
|----------------------|-------------|----------------------------| 
|----------------------|-------------|----------------------------| 

|------------------|------------|-------------------|---------| 
|------------------|------------|-------------------|---------| 
|------------------|------------|-------------------|---------| 
|--3--2--0--2------|-0----------|---------0---------|---------| 
|-------------3333-|---3-2-3----|-0--2--3---3--2--0-|---------| 
|------------------|----------4-|-------------------|-4--1--0-| 

|---0~~~3~~~2~~~1~~~-0~~~~-| 
|---0~~~3~~~2~~~1~~~-0~~~~-| 
|---0~~~4~~~3~~~2~~~-0~~~~-| 
|---2~~~5~~~4~~~3~~~-2~~~~-| 
|---2~~~5~~~4~~~3~~~-2~~~~-| 
|---0~~~3~~~2~~~1~~~-0~~~~-| 

|---------------------------|-----------------|-------------------------------| 
|----------------------1----|-------------1-0-|-------------------------------| 
|-------2-----2-2-2-2-----2-|----------2------|-0---0--------------0----------| 
|---14/---2-----------------|--2-2-2-2--------|---3---3-2222222--3---3-222222-| 
|---------------------------|-----------------|-------------------------------| 
|---------------------------|-----------------|-------------------------------| 
	  

Search Paypal
auto scroll beats size up size down change color hide chords drawings
tab show chords e-chords YouTube Clip e-chords hide all tabs e-chords go to top tab