Detonautas

home > Detonautas

O dia que nao acabou Tab

Detonautas

Difficulty: EasyEasy

by Kanuzinho

tuner correct add songbook print version text version save to e-mail
chordsukulelecavacokeyboardtabbassdrumsharmonicsflute Guitar Pro
chords

O dia que nao acabou

  		Solo de Refrão: 
 
2X 
E------------------------------------------------------------------------------------------------------- 
B------12--13------12--13------12--13-------12--13---15--13--12----12--13--12-13--12------------------- 
G-14-----------14-----------14------------14------------------------------------------------------------ 
D------------------------------------------------------------------------------------------------------- 
A------------------------------------------------------------------------------------------------------- 
E------------------------------------------------------------------------------------------------------- 
 
 
 
E----------------------------------------------------------------------------------------------------- 
B---------15--13--12---------------------------------------------------------------------------------- 
G-14--------------------14--12-------14-----13--12--13--12-------------------------------------------- 
D----------------------------------14----------------------------------------------------------------- 
A----------------------------------------------------------------------------------------------------- 
E----------------------------------------------------------------------------------------------------- 
 
 
 
E------------------------------------------------------------------------------------------------------ 
B---------15--13--12----------------------------------------------------------------------------------- 
G-14--------------------14--12-------14-----13-12--13/15--13--12--------------------------------------- 
D----------------------------------14------------------------------------------------------------------ 
A------------------------------------------------------------------------------------------------------ 
E------------------------------------------------------------------------------------------------------ 
 

	  

Search Paypal
auto scroll beats size up size down change color hide chords drawings
tab show chords e-chords YouTube Clip e-chords hide all tabs e-chords go to top tab