Raul Seixas

Medo da Chuva

Raul Seixas

tabs Beginner beginner

by  MNETO

close

there isn't a video lesson for this song

chords

Medo da Chuva

Year: 1974 - Album: Gîtâ

(Coelho / Seixas)

	  		 
Intro      A(Em7)      A7         D G F#m E D 
E|---4/5-5-5-0-0-0-0-2-2/3-3-3-3-2-0---3--2---0---|-2---2---3p2-----| 
B|-----------------------------------3----------3-|---3---3-----3---| 
G|------------------------------------------------|---------------2-| 
D|------------------------------------------------|-----------------| 
A|------------------------------------------------|-----------------| 
E|------------------------------------------------|-----------------| 
 
Riff 1 
E|-2---2-------3p2-----2---2------| 
B|---3---3---------3-----3------3-| 
G|--------------------2-------2---| 
D|--------------------------------| 
A|--------------------------------| 
E|--------------------------------| 
Riff 2 
E|--/10-10-9-9-7-7-5-5------5-7-9-5---| 
B|----------------------5h7-------6---| 
G|--/11-11-9-9-7-7-6-6----------------| 
D|------------------------------------| 
A|------------------------------------| 
E|------------------------------------|  
Riff 3 
E|--/9-7-5---5------------------------| 
B|---------------5--------------------| 
G|--/9-7-6-----6----------------------| 
D|------------------------------------| 
A|------------------------------------| 
E|------------------------------------|     
Riff 4             
E|----2--3p2-----2------2---3p2-------| 
B|--3---3----3-------3~---3-----3--3--| 
G|-------------2---2--------------2---| 
D|------------------------------------| 
A|------------------------------------| 
E|------------------------------------| 
Riff 5a                 Riff 5b 
E|---------------12-|----10-----14-------10------8-----7------5--| 
B|---5--------14----|--------------------------------------------| 
G|-6-------12-------|-/11--11/14---14\11----11\9---9\7----7\5----| 
D|------------------|--------------------------------------------| 
A|------------------|--------------------------------------------| 
E|------------------|--------------------------------------------| 
Riff 6 
E|-2-2~------2-3-2---2-2~----------| 
B|-3-3~------3-3-3---3-3~----------| 
G|------(2)------------------------| 
D|---------------------------------| 
A|---------------------------------| 
E|---------------------------------| 
Riff 7 
E|--/9-9-7-5--/9-9-7-5-(3)---------| 
B|---------------------------------| 
G|--/9-9-7-6--/9-9-7-6-(4)---------| 
D|---------------------------------| 
A|---------------------------------| 
E|---------------------------------| 
Riff 8 
E|------5-5/7-5-------------5-5/7-5-----------| 
B|----5---------5h7 5-----5---------5h7 5-----| 
G|--7-----------------7-7-----------------7---| 
D|--------------------------------------------| 
A|--------------------------------------------| 
E|--------------------------------------------| 
 
 
Riff 9a       Riff 9b            Riff 9c 
E|----|-------3--5--7--9---|---------2----| 
B|----|--------------------|-------3---3--| 
G|-4^-|-------4--6--7--9---|-----2--------| 
D|----|--------------------|--------------| 
A|----|--------------------|--------------| 
E|----|--------------------|--------------| 
Riff 10 
E|-----2---2h3-2-----2---2--------------| 
B|---3-3-3-3~--3---3-3---3--------------| 
G|-2-------------2-----2----------------| 
D|--------------------------------------| 
A|--------------------------------------| 
E|--------------------------------------| 
Riff 11 
E|-----3-2-3-3/5-5-5-3-2----------------| 
B|---3-------------------3--------------| 
G|-2-----------------------2------------| 
D|--------------------------------------| 
A|--------------------------------------| 
E|--------------------------------------| 
Riff 12 
E|-----2---2h3-2-----2---2--------------| 
B|---3-3-3-3~--3---3-3---3--------------| 
G|-2-------------2-----2----------------| 
D|--------------------------------------| 
A|--------------------------------------| 
E|--------------------------------------| 
D(riff 1)                                A7(Riff 2) 
É pena  Que você pense que eu sou seu escravo 
                   (riff 3)  
Dizendo que eu sou seu marido 
            D(Riff 4) 
E não posso partir 
        G 
Como as pedras imóveis  na praia 
               F#m        Bm 
Eu fico ao teu lado sem saber 
   A(Em7)                  A7       (Riff 5a)     D(Riff 5b) 
Dos amores que a vida me trouxe E eu não pude viver 
 
 Refrão: 
   G 
Eu perdi o meu medo 
E|-------3-3----------------------------| 
B|-----3-----3--------------------------| 
G|---0---------0------------------------| 
D|-0-------------0----------------------| 
A|--------------------------------------| 
E|--------------------------------------| 
                      D 
Meu medo, meu medo da chuva 
E|-------2-2-----------------------------| 
B|-----3-----3---------------------------| 
G|---2---------2-------------------------| 
D|-0-------------0-----------------------| 
A|---------------------------------------| 
E|---------------------------------------| 
       G 
Pois a chuva voltando pra terra 
E|-------3-3----------------------------| 
B|-----3-----3--------------------------| 
G|---0---------0------------------------| 
D|-0-------------0----------------------| 
A|--------------------------------------| 
E|--------------------------------------| 
               D 
Traz coisas do ar 
E|-------2-2-----------------------------| 
B|-----3-----3---------------------------| 
G|---2---------2-------------------------| 
D|-0-------------0-----------------------| 
A|---------------------------------------| 
E|---------------------------------------| 
    G 
Aprendi o segredo 
E|-------3-3----------------------------| 
B|-----3-----3--------------------------| 
G|---0---------0------------------------| 
D|-0-------------0----------------------| 
A|--------------------------------------| 
E|--------------------------------------| 
                          D 
O segredo, o segredo da vida 
E|-------2-2-----------------------------| 
B|-----3-----3---------------------------| 
G|---2---------2-------------------------| 
D|-0-------------0-----------------------| 
A|---------------------------------------| 
E|---------------------------------------| 
         Em7                A7 
Vendo as pedras que choram sozinhas no mesmo 
     D(Riff 6) 
   Lugar; Eu não posso entender 
                            A7(Riff 7) 
tanta gente aceuitando a mentira 
De que os sonhos desfazem 
                     D(Riff 8) 
Aquilo que o padre falou 
       G 
Porque quando eu jurei meu amor 
              F#m 
eu traí a mim mesmo 
 Bm  (Riff 9a)      Em7       (riff 9b)  A7                     (Riff 9c) 
 Hoje eu sei que ninguém nesse mundo É feliz tendo amado uma vez 
    D   D7 
Uma vez 
Repete Refrão 
   G 
Eu perdi o meu medo 
                      D 
Meu medo, meu medo da chuva 
       G 
Pois a chuva voltando pra terra 
               D 
Traz coisas do ar 
      G 
Aprendi o segredo 
                         D 
O segredo, o segredo da vida 
         Em7 
Vendo as pedras que choram 
 
     A7              D(Riff 10) 
   sozinhas no mesmo lugar 
 
         Em7       (Riff 11) 
Vendo as pedras que choram 
     A7              D (Riff 12) 
   sozinhas no mesmo lugar 
         Em7 
Vendo as pedras que sonham 
  A7                D 
Sozinhas no mesmo lugar 
 
Final 
E|-------------------------------------| 
B|-------------------------------------| 
G|-----------7-7---7/9-7-----------7---| 
D|-----5-7/9-----9-------9\7-5-7/9-----| 
A|-5-7---------------------------------| 
E|-------------------------------------| 
 
é  isso ai valeu 

		  

Full key step upFull key step up
Half key step upHalf key step up
Half key step downHalf key step down
Full key step downFull key step down
auto scroll beats size up size down change color hide chords drawings
tab show chords e-chords YouTube Clip e-chords hide all tabs e-chords go to top tab

share