Desperation band

Promises

Desperation band

tabs Expert expert

by  SIWELB1

save to print version add songbook text version e-mail correct tuner
chordsukulelecavacokeyboardtabbassdrumsharmonicaflute Guitar Pro
close

there isn't a video lesson for this song

chords

Promises

	  		 Intro: 
 
 Riff 1-- 
    
 D |-7--7--7--7--7--7--7--7--5--5--5--5--7--7--5--5-----| 
 A |-5--5--5--5--5--5--5--5--7--7--7--7--9--9--7--7-----| 
 E |--------------------------------------------------------------------| 
  
 D                                    G              A        
 All of your promises won't let go of me 
 
 Verse 1: 
 
 Riff 2-- 
 
 E|---------------------------------------------------------------------------------------------------------------------------------| 
 B|-5--3--3--3--3--3--3--3--2--2--2--2--2--2--2--2--0--0--0--0--0--0--0--0--8--8--8--8--7--7--7--7--|  
 G|---------------------------------------------------------------------------------------------------------------------------------| 
  
 E|-----------------------------------------------------------------| 
 B|-5--3--3--3--3--3--3--3--2--2--2--2--2--2--2--2--| 
 G|-----------------------------------------------------------------| 
 
 
 D                                    A                  
 I've surrendered my life to your ways 
 Bm                                   G              
 I have learned what it means to obey 
 D                  A                                                    G     
 Jesus, my heart has been changed by you 
 D                             A              
 I am walking the path you made 
 Bm                          G               
 I am seeking the truth everyday 
 D                           A                            G 
 And Jesus, my heart has been changed by You 
 
 
 Pre-Chorus: 
 Bm                        A 
 I couldn't walk away if I tried 
 G                        
 'Cause your love is better than life 
 
  
 Chorus: 
               D                                               A 
 Oh the sun's shining bright and it just won't set 
                          Bm                              G 
 'Cause Your love is a light and it lights my step 
    D                                              A 
 My heart is amazed every day to the next 
          Bm                                G 
 Your joy overtakes and I can't forget about 
 D               A             Bm  
 Ohhhhh  Ohhhhh  Ohhhhh 
 G 
 I can't forget about it 
 
  
 Bridge/Break-down: 
 
 Same as intro 
 
  

		  

Full key step upFull key step up
Half key step upHalf key step up
Half key step downHalf key step down
Full key step downFull key step down
hide glossary

See also:

tabs Bloodgood - Out of the darkness tabs Chris Tomlin - Not To Us tabs FFH - one of these days tabs Hank Williams - I'm So Lonesome I Could Cry tabs Audio Adrenaline - Free Ride tabs Caedmon's Call - Lead of Love
e-chords

Other versions:

tabs Def Leppard - Promises tabs Desperation band - Promises tabs Face To Face - Promises tabs Lillix - Promises tabs Megadeth - Promises tabs The Cranberries - Promises
auto scroll beats size up size down change color hide chords drawings
tab show chords e-chords YouTube Clip e-chords hide all tabs e-chords go to top tab

share