Delta Spirit

Ransom Man

Delta Spirit

tabs

by  ANDRSOUZA

save to print version add songbook text version e-mail correct tuner
chordsukulelecavacokeyboardtabbassdrumsharmonicaflute Guitar Pro
close

there isn't a video lesson for this song

chords

Ransom Man

	  		Intro 
eb|-------------------------------------------------------------| 
Bb|--8-------8-----8-------8---------6-------6-------6-------6--| 
Gb|------0-------0-----0-------0-7-------7-----6h7-------7------| 
Db|----8-------8-----8-------8-----8-------8-------8-------8----| 
Ab|--6-----6-------7-----7-------8-----8-------8-------8--------| 
Eb|-------------------------------------------------------------| 

      
eb|-----------------------------------------------------------| 
Bb|--8-------8-----8-------8---------6-------6-----6-------6--| 
Gb|------0-------0-----0-------0-7-------7-----6-------7------| 
Db|----8-------8-----8-------8-----8-------8-----8-------8----| 
Ab|--6-----6-------7-----7-------8-----8-------8-----8--------| 
Eb|-----------------------------------------------------------| 

    
eb|-----------------------------------------------------------| 
Bb|--8-------8-----8-------8---------6-------6-----6-------6--| 
Gb|------0-------0-----0-------0-7-------7-----6-------7------| 
Db|----8-------8-----8-------8-----8-------8-----8-------8----| 
Ab|--6-----6-------7-----7-------8-----8-------8-----8--------| 
Eb|-----------------------------------------------------------| 

     
eb|-----------------------------------------------------------| 
Bb|--8-------8-----8-------8-----6-------6-----8-------8------| 
Gb|------0-------0-----0-------0-----7-------7-----8-------8--| 
Db|----8-------8-----8-------8-----8-------8-----8-------8----| 
Ab|--6-----6-------7-----7-------8-----8-------6-----6--------| 
Eb|-----------------------------------------------------------| 

    
eb|---------------------------------------------| 
Bb|--6-------6-----6-------6-----6-------6------| 
Gb|------7-------7-----0-------0-----7-------7--| 
Db|----8-------8-----7-------7-----8-------8----| 
Ab|--8-----8-------8-----8-------8-----8--------| 
Eb|---------------------------------------------| 

 
		  

auto scroll beats size up size down change color hide chords drawings
tab show chords e-chords YouTube Clip e-chords hide all tabs e-chords go to top tab

share