Dance of Days

Quando o Veneno Sobe A lança

Dance of Days

tabs

save to print version add songbook text version e-mail correct tuner
chordsukulelecavacokeyboardtabbassdrumsharmonicaflute Guitar Pro
close

there isn't a video lesson for this song

chords

Quando o Veneno Sobe A lança

	  		 
G|------------------------------------- 
D|-5-7-5--7-9-7-9~--9-10-9-10~--12...-- 
A|------------------------------------- 
E|------------------------------------- 
INTRO 2X 
 
              G          Em            C               D 
E|---------------------------------2-2-2-2-2--3--2--0--2-| 
B|------3----------------5---------3-3-3-3-3--3--3--3--3-| 
G|------4-------9--------5---------2-2-2-2-2--2--2--2--2-| 
D|------5-------9--------5-------------------------------| 
A|------5-------7--------3-------------------------------| 
E|------3-------7--------3-------------------------------| 
RIFF1 - Deixa soar as notas, bem baixinho 
 
 
G|---------------------------------------------------------------- 
D|-5-7-5-5-5-5----7-9-7-9~-9-9-9----9-10-9-10~-10-10-10----12...-- 
A|---------------------------------------------------------------- 
E|---------------------------------------------------------------- 
RIFF2 ?  
 
E|-x--x?----|-x--x-----|-x--x-----|-x-x------| 
B|-x--x--3--|-x--x--7--|-x--x--5--|-x--x--7--| 
G|-x--x--4--|-x--x--9--|-x--x--5--|-x--x--7--| 
D|-x--x--5--|-x--x--9--|-x--x--5--|-x--x--7--| 
A|-x--x-----|-x--x--7--|-x--x-----|-x--x-----| REPETE 2 VEZES TUDO 
E|-x--x-----|-x--x-----|-x--x-----|-x--x-----| 
Repete   4X |Repete  4X|Repete n4X|Repete  4X| 
RIFF3 ?  
 
RIFF2 e RIFF3 
Que dias há que não saiba 
Que passaste, mais depressa 
A que não percebesses, que foi 
Tão sem porque, quanto sem saber? 
 
RIFF1 e RIFF2 
E que ardesse num só segundo 
Seco e mudo era mais teu querer 
Que olhar tantas incertezas 
Quando a lança ao vento devia dizer 
Em que peito irias marcar teus punhos 
E em qual sangue lavarias tuas mãos 
E, sendo assim 
Não doeria tanto 
Responder a teu silêncio 
 
RIFF2 e RIFF3 
Quando, outro dia se foi 
E viste que passaste, mais depressa 
A que não percebesses, que foi 
Tão sem porque, quanto sem saber. 
 
G|--------------------------------------------------------------- 
D|-10/12--10--9-10~-10-10/12--10--9~--10-10/12--10--9-10~--12...- 
A|--------------------------------------------------------------- 
E|--------------------------------------------------------------- 
SOLO 2X 
 
RIFF1 e RIFF2 
Vem me buscar daqui 
Vem me fazer sorrir 
Vem me levar pra longe 
Que só tua paz pode tomar 
Minhas mãos e me tirar no escuro 
Pois, nem imagino 
Quanto se passou, desde que 
Deixei de contar os muros, 
E não sei se sigo ou desisto... 
E grito só, entre os surdos 
 
 
Depois dele parar de cantar 
G|--------------------------------------------- 
D|-5-7-5--7-9-7-9~--9-10-9-10~--12-12-12-12-12- 
A|--------------------------------------------- 
E|--------------------------------------------- 
 
-----------------------------------------------------------| 
-5-7-5--7-9-7-9~--9-10-9-10~---12-10-9-10-12-10-9--10p9--5-| 
-----------------------------------------------------------| 
-----------------------------------------------------------| 
 
 
_______________________________________________________ 
Contribuição: Vinicius Sera Colasanto([email protected]) 

		  

Full key step upFull key step up
Half key step upHalf key step up
Half key step downHalf key step down
Full key step downFull key step down
hide glossary

See also:

tabs Aditive - Cada segundo tabs A-ok - Refúgio tabs Aquila Campos - Deus Me Ama! tabs A-ok - Passagem de responsabilidades tabs Fenix TX - Phoebe Cates tabs Dance of Days - Quando o Veneno Sobe A lança
e-chords

Other versions:

tabs Dance of Days - Quando o Veneno Sobe A lança
auto scroll beats size up size down change color hide chords drawings
tab show chords e-chords YouTube Clip e-chords hide all tabs e-chords go to top tab

share