Dance of Days

Antítese

Dance of Days

tabs Advanced advanced

save to print version add songbook text version e-mail correct tuner
chordsukulelecavacokeyboardtabbassdrumsharmonicaflute Guitar Pro
close

there isn't a video lesson for this song

chords

Antítese

	  		 
G|--5--------------------------------| | 
D|--5---7---5------------------------| |RIFF 1 
A|--3---7---5------------------------| |  
E|------5---3------------------------| | 
 
G|-----------------------------------| | 
D|--2---3---5------------------------| |RIFF 2 
A|--2---3---5------------------------| | 
E|--0---1---3------------------------| | 
 
G|-----------------------------------------------| | 
D|-3-3-3-1-3-3-3-1-3-3-3-1-3-3-3-3--1-1-1-1-1-1--| |RIFF 3 
A|-3-3-3-1-3-3-3-1-3-3-3-1-3-3-3-3--1-1-1-1-1-1--| | 
E|-5-5-5-3-5-5-5-3-5-5-5-3-5-5-5-5--3-3-3-3-3-3--| | 
 
 
************************************************* 
SOLINHO DO MEIO 
************************************************* 
B|----------------------------------------------| 
G|--9-7-5-7-9-5-7-7/10-10-9-7-5-7-7/9-7-(2x)----| 
D|----------------------------------------------| 
 
B|----------------------------------------------| 
G|-9-9-10-9-7-5-7-7/9-7-9-9-10-9-7-5-7-5--7-----| 
D|----------------------------------------------| 
 
B|----------------------------------------------| 
G|--10-9-7-5-7-7/9-7-9-9-10-9-7-5-7-5-----------| 
D|----------------------------------------------| 
 
************* 
INTRO: RIFF 1 
************* 
 
****** 
RIFF 1 
****** 
Foi sem querer 
que eu pensei ser 
capaz de atravessar 
o céu em frases 
que soubessem tudo 
sobre mim. 
Juro, 
eu tentei não revolver 
os olhos 
e curar-me do vício 
de querer 
bem mais do que posso ver 
quando  
 
****** 
RIFF 2 
****** 
sei 
que é muito mais 
do que querer ter. 
E é tão ruim pensar 
que não há nada que eu possa fazer e 
nada que me afaste de 
ser assim e querer 
 
****** 
RIFF 1 
****** 
provar tudo 
e ter respostas 
a todas as perguntas. 
E porque não? 
A vida me tem sido 
tão complacente 
que jamais 
me negaria uma vez mais 
só pra ter em mãos 
e dizer adeus 
 
****** 
RIFF 2 
****** 
e eu pensaria uma vez mais 
ter o poder de enganar quem me faz casa e alimenta, 
me abraça e orienta... 
Será que eu nunca vou mudar? 
 
************* 
***SOLINHO*** 
************* 
 
****** 
RIFF 1 
****** 
Me parece tão regular 
voltar para jantar 
todos os dias 
mesmo que eu sinta a mesa 
se equilibrar entre os postes 
nos fios de alta tensão. 
E porque não? 
É só fingir 
que estamos firmes no chão 
 
****** 
RIFF 2 
****** 
e nada vai acontecer... 
E nada vai deixar de ser 
como sempre foi 
e eu vou olhar 
pra baixo e te ver passar 
e dizer uma vez mais: 
 
****** 
RIFF 3 
****** 
 
****** 
RIFF 2 
****** 
você não gostaria de 
subir pra tomar 
uma xícara de chá 
e falar dessas vidas 
tão usuais quanto as nossas ?" 
Na teoria funciona... 
 
******************************************************** 
Obs.: Na hora do solinho a segunda guitarra faz o riff 1 
******************************************************** 
 
_______________________________________________________ 
Contribuição: Thiago Guttierre do Prado([email protected]) 

		  

See also:

tabs Mukeka di Rato - Maconha tabs Maria Cecília e Rodolfo - Você De Volta tabs Fistt - Medo tabs Fenix TX - Threesome tabs Dance of Days - Quando o Veneno Sobe A lança tabs Maria Cecília e Rodolfo - Você De Volta Ao Vivo
e-chords

Other versions:

tabs Dance of Days - Antítese
auto scroll beats size up size down change color hide chords drawings
tab show chords e-chords YouTube Clip e-chords hide all tabs e-chords go to top tab

share