Cosmo Jarvis

We Just Wanna Talk

Cosmo Jarvis

tabs

by  HUGO_RODRIGUES

save to print version add songbook text version e-mail correct tuner
chordsukulelecavacokeyboardtabbassdrumsharmonicaflute Guitar Pro
close

there isn't a video lesson for this song

chords

We Just Wanna Talk

	  		

Acoustic Guitar starts at 0:31 - 1:11 
---------------------9--------------------------8-------| 
---------------------6--------------------------9-------| 
--/6--/6--6-----6--x(6)-----------------------x---------| 
--/8--/8--6-6-6-6--x---------/6--/6--6-----6--x---------| x6 
-------------------x---------/8--/8--8-6-6-6--x---------| 
--------------------------------------------------------| 

Electric Guitar/Half Distortion Licks 
0:46                        1:03 
---------------------------|----------------------------| 
---------------------------|-----9~~--9~~11~~-9h11p9~---| 
--9p8p6--8-----------------|--10~~-10~~-----------------| 
--------------6br~---------|----------------------------| 
-------------------8-6-4~--|----------------------------| 
-------------------(bass)--|----------------------------| 



Chorus - Electric 
---------------------9--------------------------8-------|     --8~~~----- 
---------------------6--------------------------9-------|     --9~~~~---- 
--/6--/6--6-----6~~~(6)---------------------------------|     ----------- 
--/8--/8--6-6-6-6~~~---------/6--/6--6-----6~~~---------| x3  ----------- 
-----------------------------/8--/8--8-6-6-6~~~---------|     ----------- 
--------------------------------------------------------|     ----------- 
Chorus - Acoustic 
-------------------9--------------------------8---------|     -4~-------- 
-------------------6--------------------------9---------|     -4~-------- 
--/6--/6--6-----6---------------------------------------|     -5~--8----- 
--/8--/8--6-6-6-6-----------/6--/6--6-----6-------------| x3  -6~~-10..-- 
----------------------------/8--/8--8-6-6-6-------------|     -6~~------- 
--------------------------------------------------------|     -4~~------- 

Lead Brake - Electric 
-------9-8~~~------------9-7~7~~~-----------------------| 
-6--9--------9-6---6--9----5~5v~~\\---------------------| 
---------------------------4~4v~~\\---------------------| 
--------------------------------------------------------| x3 
--------------------------------------------------------| 
--------------------------------------------------------| 
Lead Brake - Acoustic (pluck with fingers) 
--------------------------------------------------------| 
--------------------------------------------------------| 
-10~~--5~6~~--8~-10~~--5~6~~--8~~-----------------------| 
-11~~--6~5~~--10~11~~--6~5~~--10~-----------------------| x3 
--------------------------------------------------------| 
--------------------------------------------------------| 



verse 2 - Electric (starts on 3rd repeat of Acoustic part) 
-----14------16-------13------16-----------14------18---| 
---14--14--14-------14--14--14---(x2)----14--14--14-----| 
-15------15-------15------15-----------15------15-------| 
--------------------------------------------------------| x1.75 
--------------------------------------------------------| 
--------------------------------------------------------| 
verse 2 - Acoustic 
----9----11------9----11------9----11-----8---11--------| 
---9-9--9-------9-9--9-------9-9--9------9-9-9----------| 
-11~~-11------10---10------10---10------8---8-----------| 
--------------------------------------------------------| x3.75 
--------------------------------------------------------| 
--------------------------------------------------------| 

2:29 Electric 
-x-x-9-x-x-x-9-x-x-x-8-x-x-x-8-x------------------------| 
-x-x-6-x-x-x-6-x-x-x-9-x-x-x-9-x------------------------| 
-x-x---x-x-x---x-x-x---x-x-x---x------------------------| 
--------------------------------------------------------| 
--------------------------------------------------------| 
--------------------------------------------------------| 


2:32 - Electric                             2:40 
----------9---------9------------8--------8|-9--9--9--8-| 
----------6---------6------------9--------9|-6--6--6--9-| 
--/6--/6-(6)----6--(6)---------------------|------------| 
--/8--/8----6-6-6--------/6--/6--------6---|------------| 
-------------------------/8--/8----6-6-6---|------------| 
-------------------------------------------|------------| 
2:32 Acoustic 
--------------------------------------------------------| 
--9/10/11----4/5/6~~---4/5/6~~--------------------------| 
---------------------------------3/4/5~~----------------| 
--------------------------------------------------------| x3 
--7/8-/9~~---2/3/4~~---2/3/4~~--------------------------| 
---------------------------------2/3/4~~----------------| 



Play Chorus 

Play Lead Brake/Post Chorus 



verse 3 - Electric (starts on 4th repeat of Acoustic part) 
-----14------16-------13------16-----------14------18---| 
---14--14--14-------14--14--14---(x2)----14--14--14-----| 
-15------15-------13------13-----------15------15-------| 
--------------------------------------------------------| x4 
--------------------------------------------------------| 
--------------------------------------------------------| 
verse 2 - Acoustic 
----9----11------9----11------9----11-----8---11--------| 
---9-9--9-------9-9--9-------9-9--9------9-9-9----------| 
-11~~-11------10---10------10---10------8---8-----------| 
--------------------------------------------------------| x7 
--------------------------------------------------------| 
--------------------------------------------------------| 

4:26 Electric 
--14----13----16----14----------------------------------| 
--14----14----14----14----------------------------------| 
--15----13----15----15----------------------------------| 
--------------------------------------------------------| 
--------------------------------------------------------| 
--------------------------------------------------------| 



4:32 Eerie Intermission/Reverse Effect On Electric 
--------------------------------------------------------| 
-reverse------------------------------------------------| 
-10--------8--------10--------5-------------------------| 
-11--------10-------11--------6-------------------------| x3.75   Bass 
--------------------------------------------------------| 
--------------------------------------------------------| 
4:58 Acoustic Joins in 
--------------------------------------------------------| 
--------9~~~-------------8~~----------------------------| 
--10-------------------8--------------------------------| 
-----11-----------/10-----------------------------------| x3.5    Bass... 
--------------------------------------------------------| 
--------------------------------------------------------| 


Solo - Electric (Acoustic plays Chorus rhythm x8) 
---|------9*----------------------------------------------9-8~~-8-9~-11~~-----| 
-9-|-9br~~---------------------------------------------9~---------------------| 
---|---------------10br~--8h10p8---8~----10h11p10p8h10~-----------------------| 
---|----------------------------11---11---------------------------------------| 
---|----------11br------------------------------------------------------------| 
---|--------------------------------------------------------------------------| 
|| 
-8h9-9p8p6-8p6------999-6-8-88~~\\--------------------------------------------| 
---------------9\6~-666-7-9-99~~\\--------------------------------------------| 
------------------------------------------------------------------------------| 
------------------------------------------------------------6---6~------------| 
------------------------------------x-x-x-x-x-x-x-6v*~~-6-8---8---------------| 
------------------------------------x-4-x-6-x-4-x-----------------------------| 
|| 
--------------------------------------------------9~~-------------------------| 
-------3----3------3----3-------------------9b(11)-(11)r9------9-11-----------| 
-8b(10)~r(8)-8b(10)~r(8)---10p8p6-6-8----------------------/10------8~~\\\----| 
------------------------------------------------------------------------------| 
------------------------------------------------------------------------------| 
------------------------------------------------------------------------------| 
|| 
------------9~~-8-6-----8br--9~~~~----6-6-------------------------------------| 
----6--7--9----------9--9br--6h9p6~--------6~---------------------------------| 
-6----------------------------------6------5~-6//-----------------------------| 
----------------------------------------------8//-----------------------------| 
------------------------------------------------------------------------------| 
------------------------------------------------------------------------------| 
|| 
------------------------------------------------------------------------------| 
--6p5p4-4---------------------------------------------------------------------| 
-------6-6-3-3--6-----6p3---------------6p3---------------8p6p5---------------| 
------------6------------6-3---------------6-3-----------------8p7p6----------| 
----------------------------7p6p4-------------7p6p4-----------------8p7p6-----| 
---------------------------------6p4---------------6p4------------------------| 
|| 
--6p4-------------------------------------------------------------------------| 
-----7p6p4------------9p7p6---------------9p7p6------------9p6----------------| 
----------6------6---------8p6-----------------8p6------------8p6p5---4-5-----| 
-----------8/6\8--------------8p6--6~8------------8p6--6------------6-----6-5-| 
---------------------------------8-------------------8~-----------------------| 
------------------------------------------------------------------------------| 
|| two 4/4 bars.. then 2/4 bar at end 
---------------------------------------------------------|--------------------| 
---------------------------------------------------------|--------------------| 
---------------------------------------------------------|--------------------| 
-4-x-4-x-4-x-3h4p3--------1-3------------1-3---1--x--4/6-|-6/8~-8/10~---------| 
-------------------4-4~x-4-----4-x-4-x-4-----4-----------|--------------------| 
-----------------------------4---------------------------|--------------------| 

Last Chorus - Electric 
---------------------------------------------------------------| 
-16b~~16brp14~~---------14-16b~~16brp14-16~~-14-16-17-16-14~---| 
----------------15-13-15---------------------------------------| 
---------------------------------------------------------------| x3 
---------------------------------------------------------------| 
---------------------------------------------------------------| 
Last Chorus - Acoustic 
---------------------9--------------------------8-------|       ---14---------- 
---------------------6--------------------------9-------|       --14---------- 
--/6--/6--6-----6--x(6)-----------------------x---------|       -15--------- 
--/8--/8--6-6-6-6--x---------/6--/6--6-----6--x---------| x3.5  ---------- 
-------------------x---------/8--/8--8-6-6-6--x---------|       --------- 
--------------------------------------------------------|       ------- 


Pretty sure this is bass, but whatever. 
6:42 - Acoustic 
---------------------------------------------------------------| 
---------------------------------------------------------------| 
---------------------------------------------------------------| 
------6~--4-6-8~----3-4~~----1-3~~----1-2-------1-2------------|  
--8-4-------------6--------4--------4-----4~--4-----4-3~~------| 
---------------------------------------------------------------| 

Both Guitars - End Chord... f#. 
------------2-2-2-2-2-2-2-2------------2-1---------------------| 
-----------222-2-2-2-2-2-2-----------------2-------------------| 
---------3--33-3-3-3-3-3-3-------------------3-----------------| 
-------4----4-4-4-4-4-4-4-4------------------------------------| 
----4------4-4-4-4-4-4-4-4-------------------------------------| 
--2----------2-2-2-2-2-2-2-------------------------------------| 
end lick on Acoustic at end of strumming ^ 


 
		  

See also:

tabs Blur - Coffee And TV tabs Ben Howard - Oats In The Water tabs Oasis - Stop crying your heart out tabs Jethro Tull - Mother Goose tabs Stone Temple Pilots - Interstate love song tabs Jethro Tull - Locomotive Breath Beginning
e-chords

Other versions:

tabs Cosmo Jarvis - We Just Wanna Talk
auto scroll beats size up size down change color hide chords drawings
tab show chords e-chords YouTube Clip e-chords hide all tabs e-chords go to top tab

share