Coletta

Blossom

Coletta

tabs

by  TAMAMOREIRA

save to print version add songbook text version e-mail correct tuner
chordsukulelecavacokeyboardtabbassdrumsharmonicaflute Guitar Pro
close

there isn't a video lesson for this song

chords

Blossom

	  		
        
      (pm) 
e|------------------| 
B|------------------| 
G|-9-8-9-8----------| 
D|---------9-6-9-9--| 
A|------------------| 
E|------------------| 

Pre-Chorus 1 - 0:30 

e|------------|-----------------|-------------|---------| 
B|-9----------|-------------9b--|-------------|---------| 
G|----11-9-8--|-6-8-9-8-8b------|-9-8-9-8-----|-6-8-----| 
D|------------|-----------------|---------9b--|-----9b--| 
A|------------|-----------------|-------------|---------| 
E|------------|-----------------|-------------|---------| 

Motif (palm mute) - 0:43 

e|------------------| 
B|------------------| 
G|-9-8-9-8----------| 
D|---------9-6-9-9--| 
A|------------------| 
E|------------------| 

Chorus 1 - 0:45 

e|----------|------------|-------------------11-11-11-9-9-9--|--------------| 
B|----------|------------|----------12-12-12-----------------|-11-12-11-----| 
G|-9-8---6--|-11-9-8-8b--|-13-13-13--------------------------|--------------| 
D|-----9----|------------|-----------------------------------|--------------| 
A|----------|------------|-----------------------------------|--------------| 
E|----------|------------|-----------------------------------|--------------| 

e|----------------------|------------------------| 
B|----------------------|------------------------| 
G|-6/8-6------6/8-6-----|-6/8-6-----------8/9-8--| 
D|-------8b---------8b--|-------8b-6b---9--------| 
A|----------------------|------------------------| 
E|----------------------|------------------------| 

e|----------------|--------------|-------------------11-11-11-9-9-9--|--------------| 
B|----------------|--------------|----------12-12-12-----------------|-11-12-11-----| 
G|-----8/9-8---6--|-11-9-8-8b----|-13-13-13--------------------------|--------------| 
D|-6-9-------9----|--------------|-----------------------------------|--------------| 
A|----------------|--------------|-----------------------------------|--------------| 
E|----------------|--------------|-----------------------------------|--------------| 

e|----------------------|------------------------| 
B|----------------------|------------------------| 
G|-6/8-6------6/8-6-----|-6/8-6-----------8/9-8--| 
D|-------8b---------8b--|-------8b-6b---9--------| 
A|----------------------|------------------------| 
E|----------------------|------------------------| 

verse 1 - 1:11 

e|------9/11------9/11-12-11-9--|----------------------11-12-11-12-14b-9--| 
B|-12-9------11-8---------------|-16-0-12-0-14-0-11-12--------------------| 
G|------------------------------|-----------------------------------------| 
D|------------------------------|-----------------------------------------| 
A|------------------------------|-----------------------------------------| 
E|------------------------------|-----------------------------------------| 

e|-----7-----7-----|--------------------| 
B|-------------7\--|--------------------| 
G|-8h9---8h9-------|-xx-xxx-xxx-xxx-x8--| 
D|-----------------|-xx-xxx-xxx-xxx-x9--| 
A|-----------------|-xx-xxx-xxx-xxx-x6--| 
E|-----------------|-xx-xxx-xxx-xxx-x0--| 

Motif - 1:35  
        
      (pm) 
e|------------------| 
B|------------------| 
G|-9-8-9-8----------| 
D|---------9-6-9----| 
A|------------------| 
E|------------------| 

Solo - 1:38 - not in actual song but I like to play it  

e|---------6-----------------|----------------------|----------------------------|-11-12-11-12-----------| 
B|-14b-14b---14b-12-14b------|-------12----12b-12b--|-12b-12b-12b-12b-11h12-11b--|-------------12-9-12/--| 
G|----------------------13b--|-12h13----13----------|----------------------------|-----------------------| 
D|---------------------------|----------------------|----------------------------|-----------------------| 
A|---------------------------|----------------------|----------------------------|-----------------------| 
E|---------------------------|----------------------|----------------------------|-----------------------| 

Pre-Chorus 2 - 1:51 

e|------------|-----------------|-------------|---------| 
B|-9----------|-------------9b--|-------------|---------| 
G|----11-9-8--|-6-8-9-8-8b------|-9-8-9-8-----|-6-8-----| 
D|------------|-----------------|---------9b--|-----9b--| 
A|------------|-----------------|-------------|---------| 
E|------------|-----------------|-------------|---------| 

Motif (palm mute) - 2:04 

e|------------------| 
B|------------------| 
G|-9-8-9-8----------| 
D|---------9-6-9-9--| 
A|------------------| 
E|------------------| 

Chorus 2 - 2:04 

e|----------|------------|-------------------11-11-11-9-9-9--|--------------| 
B|----------|------------|----------12-12-12-----------------|-11-12-11-----| 
G|-9-8---6--|-11-9-8-8b--|-13-13-13--------------------------|--------------| 
D|-----9----|------------|-----------------------------------|--------------| 
A|----------|------------|-----------------------------------|--------------| 
E|----------|------------|-----------------------------------|--------------| 

e|----------------------|------------------------| 
B|----------------------|------------------------| 
G|-6/8-6------6/8-6-----|-6/8-6-----------8/9-8--| 
D|-------8b---------8b--|-------8b-6b------------| 
A|----------------------|------------------------| 
E|----------------------|------------------------| 

e|--------------|--------------|-------------------11-11-11-9-9-9--|--------------| 
B|--------------|--------------|----------12-12-12-----------------|-11-12-11-----| 
G|-----9-8---6--|-11-9-8-8/13--|-13-13-13--------------------------|--------------| 
D|-6-9-----9----|--------------|-----------------------------------|--------------| 
A|--------------|--------------|-----------------------------------|--------------| 
E|--------------|--------------|-----------------------------------|--------------| 

e|----------------------|------------------------| 
B|----------------------|------------------------| 
G|-6/8-6------6/8-6-----|-6/8-6-----------8/9-8--| 
D|-------8b---------8b--|-------8b-6b------------| 
A|----------------------|------------------------| 
E|----------------------|------------------------| 

verse 2 - 2:30 

e|------9/11------9/11-12-11-9--|----------------------11-12-11--| 
B|-12-9------11-8---------------|-16-0-12-0-14-0-11-12-----------| 
G|------------------------------|--------------------------------| 
D|------------------------------|--------------------------------| 
A|------------------------------|--------------------------------| 
E|------------------------------|--------------------------------| 

e|----------------------|--------------------------| 
B|----------------------|--------------------------| 
G|-6/8-6------6/8-6-----|-6/8-6-----------8/9-8-8--| 
D|-------8b---------8b--|-------8b-6b---9-------9--| 
A|----------------------|-----------------------6--| 
E|----------------------|-----------------------0--| 

Outro - 2:45 

e|---------------------|-----------------|--------------------------------|----| 
B|---------------------|-----------------|-12b-11-11h12p9-7-9-5-7-4h5p4b--|----| 
G|-x---8-----8-----8\--|-6/9------6b-----|--------------------------------|-8--| 
D|-x---9---9-9-----9\--|-----9b------8b--|--------------------------------|-9--| 
A|-x---6---------x-6\--|-----------------|--------------------------------|-6--| 
E|---------------------|-----------------|--------------------------------|-0--| 

--------------------------------S T R U M M I N G------------------------------- 



************************************ 

| b  Bend 
| /  Slide up 
| \  Slide down 
| x  Dead note 
| h  Hammer-on 
| p  Pull-off 

************************************ 
		  

auto scroll beats size up size down change color hide chords drawings
tab show chords e-chords YouTube Clip e-chords hide all tabs e-chords go to top tab

share