Coal Chamber

Shock The Monkey (ver. 2)

Coal Chamber

tabs

save to print version add songbook text version e-mail correct tuner
chordsukulelecavacokeyboardtabbassdrumsharmonicaflute Guitar Pro
close

there isn't a video lesson for this song

chords

Shock The Monkey (ver. 2)

	  		the tuning is c,g,c,f,a,d...easy...but kix major ass 
 
---------------------------------- 
--------------------------------- 
-------------------------------- 
--0--0--2--0-0------------------------- 
--0--0--2--0-0------------------------ 
--0--0--2--0-0--- 
do that like a million times...then.. 
------------------------ 
------------------------ 
------------------------ 
-------2----------------- 
-------2---------------- 
-------2----------------- 
hold that while dez and ozzy scream monkey...... 
thats it! 
 

		  

See also:

tabs Wheatus - Teenage Dirtbag tabs James Blunt - Wisemen tabs Candlebox - Far behind tabs Slash Snakepit - Godfather Theme tabs Hoobastank - Disappear tabs Iron Butterfly - IronButterfly-in A Gadda Da Vida
e-chords

Other versions:

tabs Coal Chamber - Shock The Monkey tabs Coal Chamber - Shock The Monkey (ver. 2)
auto scroll beats size up size down change color hide chords drawings
tab show chords e-chords YouTube Clip e-chords hide all tabs e-chords go to top tab

share