Children Of Bodom

Bodom Beach Terror

Children Of Bodom

tabs

save to print version add songbook text version e-mail correct tuner
chordsukulelecavacokeyboardtabbassdrumsharmonicaflute Guitar Pro
close

there isn't a video lesson for this song

chords

Bodom Beach Terror

	  		This is most of it, I'm working on the solos.  
I'll put them up soon. E-mail me at [email protected] 
for corrections or comments or anything.. 
 
.= palm mute 
*= Pinch Harmonic 
h= Hammer-on 
p= Pull-off 
/= Slide Up 
\= Slide down 
s= Sweep 
^= Bend 
~= Let Ring 
 
Tuned down a whole step 
 
Intro 
--------------------------------------------------------- 
---------------------------------------------------------  
--------------------------------------------------------- 
-4---------4-5-4---------7-5-4-----------4-5-4-----------  play 2 
-4---------4-5-4---------7-5-4-----------4-5-4----------- 
-2-2222-22-2-3-2-2222-22-5-3-2-2222-22---2-3-2-0-0-0-0-0- 
   .... ..       .... ..       .... ..         . . . . . 
 
 
verse 
------------------------------------ 
------------------------------------ 
------------------------------------   
------------------------------------ 
---5h7--5h7----10h7---5h7----------- 
-0-----0-----0------0-----1-0-0-3-0- 
 
 
 
------------------------------------------------- 
------------------------------------------------- 
---------------------------------------------7h9- 
---------------------------------------5h7h9----- 
---5h7---5h7---10h7---5h7--------5h7h9----------- 
-0-----0-----0------0------5h7h9----------------- 
 
..Get set where to go?... 
 
 
------------------------------------ 
------------------------------------ 
------------------------------------   
------------------------------------ 
---5h7--5h7----10h7---5h7----------- 
-0-----0-----0------0-----1-0-0-3-0- 
 
 
 
---------------------------------- 
---------------------------------- 
--------------------------5-3-8-7- 
--------------------------5-3-8-7- 
---5h7---5h7---10h7---5h7-3-1-6-5- 
-0-----0-----0------0------------- 
 
 
 
------------------------------------ 
------------------------------------ 
------------------------------------ 
--------------------------------5-3- 
---5h7--5h7----10h7---5h7-------5-3- 
-0-----0-----0------0-----1-0-0-3-1- 
 
 
---------------------------------- 
---------------------------------- 
--------------------------5-3-8-7- 
--------------------------5-3-8-7- 
---5h7---5h7---10h7---5h7-3-1-6-5- 
-0-----0-----0------0------------- 
 
-------------------------------------------------------- 
-------------------------------------------------------- 
------------------------------------------------------3- 
-----4---------------4--------4---------------4-----4-3- 
-----4---------------4--------4---------------4-5-4-2-1- 
-22222-2222-0000-22222----22222-2222-0000-22222-3-2----- 
 
---------------------------------------------------------------- 
--------------------------------------------------------14-12-0- 
---------------------------------------------------9-11--------- 
-----4---------------4--------4---------------4-44-9------------ 
-----4---------------4--------4---------------4-44-------------- 
-22222-2222-0000-22222----22222-2222-0000-22222-22-------------- 
 
-------------------------------- 
-------------------------------- 
-6------7-------6------9-------- 
-6------7-------4-4444-7-7777--- 
-4------5-5555------------------ 
-------------------------------- 
hold      ....    ....   .... 
 
----------------------------- 
----------------------------- 
-6------7------6------9------ 
-6------7------4-4444-7-7777- 
-4-------5-5555--------------- 
----------------------------- 
hold      ....   ....   .... 
 
-----------------------------------------------------------------23\12- 
----------------------------------------------------------------------- 
---------------------------------------------------------------9------- 
-6-----6-----6-----6-----7-----11-----9----9----9----9-------9--------- 
-44444-44444-44444-44444-55555-9-9999-7777-7777-7777-77777-7----------- 
----------------------------------------------------------------------- 
  ....  ....  ....  ....  ....   ....  ...  ...  ...  .... 
 
 
...late night you party until it's light.. 
This part's hard as hell to tab out..it's close 
 
------------------------------------------------------ 
------------------------------------------------------ 
---------------------------6-6-9-999/11-11/14-14-14-14- 
-4-4-/--11-11/-12-12/14-14-4-4-7-777/9--9-/12-12-12-12- 
-4-4-/--11-11/-12-12/14-14----------------------------- 
-2-2-/---9-9-/-10-10/12-12----------------------------- \ play 8 times 
							/ 
 
------------------------------------------------------- 
-------------------------------------------------------        
---------------------------6-6-9-999/11-11/14-14-14-14- 
-4-4-/--11-11/-12-12/14-14-4-4-7-777/9--9-/12-12-12-12- 
-4-4-/--11-11/-12-12/14-14----------------------------- 
-2-2-/---9-9-/-10-10/12-12----------------------------- 
 
Guitar 1 (Alexi lead) plays this while playing the above 
------------------------------------------------------------------------- 
-----------------13-11-----11-------------------------------------------- 
-10--13-12----10--------13----13-12----10-12-13-12-10---10-12-13-12-10--- 
-----------13-----------------------13----------------13--------------13- 
------------------------------------------------------------------------- 
------------------------------------------------------------------------- 
 
--------------------------------------------------------- 
---------------------------------------------------------  
--------------------------------------------------------- 
-4---------4-5-4---------7-5-4-----------4-5-4-----------   
-4---------4-5-4---------7-5-4-----------4-5-4----------- 
-2-2222-22-2-3-2-2222-22-5-3-2-2222-22---2-3-2-0-0-0-0-0- 
   .... ..       .... ..       .... ..         . . . . . 
 
----------------------------------------------------------- 
--------------------------------------------------------7*-  
----------------------------------------------------------- 
-4---------4-5-4---------7-5-4-----------4-5-4-------------  play 2 
-4---------4-5-4---------7-5-4-----------4-5-4------------- 
-2-2222-22-2-3-2-2222-22-5-3-2-2222-22---2-3-2-0-0-0-0-0--- 
   .... ..       .... ..       .... ..         . . . . . 
 
------------------------------------ 
------------------------------------ 
------------------------------------   
------------------------------------ 
---5h7--5h7----10h7---5h7----------- 
-0-----0-----0------0-----1-0-0-3-0- 
 
 
---------------------------------- 
---------------------------------- 
--------------------------5-3-8-7- 
--------------------------5-3-8-7- 
---5h7---5h7---10h7---5h7-3-1-6-5- 
-0-----0-----0------0------------- 
 
 
Break Before solo..play really fast.. 
 
------------------------------------------ 
------------------------------------------ 
------------------------------------------ 
------------------------------------------ play 3x 
------------------77-55-44----4----------- 
-2222-555-3-22-55----------77---7-5-4-3-1- 
 
 
Then something like this after.. 
-------------------------- 
-------------------------- 
--------------------------  
-------------------------- 
------------------2-3-3-4- 
-22-555-33-24-555-0-1-1-2- 
 
------------------------------------------ 
------------------------------------------ 
------------------------------------------ 
------------------------------------------ play 3x 
------------------77-55-44----4----------- 
-2222-555-3-22-55----------77---7-5-4-3-1- 
 
-------------------------- 
-------------------------- 
--------------------------  
-------------------------- 
------------------2-3-3-4- 
-22-555-33-24-555-0-1-1-2- 
 
                             Solo 
 
 
 
Alternative Picking..very fast 
-171717171717-19191919-2121212121-2222222222- 
--------------------------------------------- 
--------------------------------------------- 
--------------------------------------------- 
--------------------------------------------- 
--------------------------------------------- 
 
			Guitar 2 
			----------- 
			----------- 
			----------- 
			----------- 
			-2-4------- 
			-0-2------- 
 
 
 
-24^-24^-24^-24^-24^-24^-24^-24^-24^-24^-24^-24^-20^-22^- 
--------------------------------------------------------- 
--------------------------------------------------------- 
--------------------------------------------------------- 
--------------------------------------------------------- 
--------------------------------------------------------- 
 
 
--------14-------------14----------------------- 
-----14----17-14----14----17-14-15-14-----14---- 
-16^-------------16^------------------16^------- 
------------------------------------------------ 
------------------------------------------------ 
------------------------------------------------ 
 
 
Guitar 2 
---------------------------------------- 
---------------------------------------- 
---------------------------------------- 
---------------------------------------- 
---------4--------------------------4--- 
-2-2-2-2-2--2-2-2-2-0-0-0-0-2-2-2-2-2--- 
 
 
----------------------------------------------- 
----------------------------------------------- 
-17-16-14----16----14-------------------------- 
----------16----16----16----14-14----------14-- 
-------------------------16-------14-15-16----- 
----------------------------------------------- 
 
------------------------------------------------- 
-------------------------------------------------	 
-------------------------------------------------	 
----------------------------------------------3--	 
---------4--------------------------4---7-4-2-1--	 
-2-2-2-2-2--2-2-2-2-0-0-0-0-2-2-2-2-2---5-2-0----	 
 
 
 
----------------------------------- 
----------------------------------- 
----------------------------------- 
----------------------------------- 
--------4------------------------4- 
2-2-2-2-2--2-2-2-2-0-0-0-0-2-2-2-2- 
 
------------------------------------------------------ 
-------------------------17-14--------16-14----------- 
-------------------------------17-16--------17-16----- 
----------14------------------------------------------ 
-14-15-16-------12----14------------------------------ 
-------------14----14--------------------------------- 
 
----------------------------------- 
----------------------------------- 
----------------------------------- 
----------------------------------- 
--------4------------------------4- 
2-2-2-2-2--2-2-2-2-0-0-0-0-2-2-2-2- 
 
 
-17^-19-14-19^-19-17--22^-22^-22^-22^---- 
--------------------15------------------- 
----------------------------------------- 
----------------------------------------- 
----------------------------------------- 
----------------------------------------- 
 
----------------------------------- 
----------------------------------- 
----------------------------------- 
----------------------------------- 
--------4------------------------4- 
2-2-2-2-2--2-2-2-2-0-0-0-0-2-2-2-2- 
 
-19-------17-------------------------------------------------------- 
---19--------19----------------------------------------------------- 
-----22-18------22-18----------------------------------------------- 
----------------------22-18-------18-16-------16-14----------------- 
----------------------------19-17-------19-16-------16-14-14-14-14-- 
-------------------------------------------------------------------- 
 
----------------------------------------------------14-12\0- 
--------------------------------------10-10-10---10--------- 
-----------------------------------------------9------------ 
------------------------------------7----------------------- 
--------4------------------------4-------------------------- 
2-2-2-2-2--2-2-2-2-0-0-0-0-2-2-2-2-------------------------- 
 
---------------------------------------- 
-------------14----14----14~~----------- 
-------------14----14----14~~----------- 
---------------------------------------- 
-16-16-16-16----16----16---------------- 
---------------------------------------- 
 
-3/5-0-0--5/7-0-0-7/9-0-0-10/12-0-0--7-9-7---------------------------- 
-------------------------------------------10-8-7--------------------- 
--------------------------------------------------9-7-6--------------- 
--------------------------------------------------------9-7-6--------- 
--------------------------------------------------------------9-7-5--- 
---------------------------------------------------------------------- 
 
---------------------------------------------------------------------- 
---------------------------------------------------------------------- 
--------------------------------------------------------------9-11--9- 
-----------------------------------9-----9-11--9-11-12-9-11-12----12-- 
--------9-----9-11--9-11-12-9-11-12-11-12----12----------------------- 
-9-11-12-11-12----12-------------------------------------------------- 
 Sounds like it's gradually building.. 
 
Guitar 2 
--------------- 
--------------- 
--------------- 
-6~----7~------ play 2x 
-4~----5~------ 
--------------- 
 
---------------------------------------14h16p14h16p12------12s16s21-16--16-22-24^ 
---------12-14--12-14-15-12-14-12-15-17--------------12--12-----------15--------- 
-11-13-14-----14---------------------------------------13------------------------ 
--------------------------------------------------------------------------------- 
--------------------------------------------------------------------------------- 
--------------------------------------------------------------------------------- 
 
Guitar 2 
--------------------------------------------------- 
--------------------------------------------------- 
--------------------------------------------------- 
-6~----7~------------------------------------------ 
-4~----5~--444444444-55555555-777777777-99999999--- 
--------------------------------------------------- 
 
-24^~-19h21p22p19-----19--------------19h21h22p19h21---19---------------- 
-----------------21h22--21h22p19h21h22---------------22--21h22p19h21h22-- 
------------------------------------------------------------------------- 
------------------------------------------------------------------------- 
------------------------------------------------------------------------- 
------------------------------------------------------------------------- 
 
------------------------ 
------------------------ 
------------------------ 
------------------------ 
-7-7-7-7-7-7-7-7-7-7---- 
------------------------ 
 
-19h21h22p21p19p17h21p19p17--19p17----------- 
---------------------------21-----21p19p17--- 
------------------------------------------19- 
--------------------------------------------- 
--------------------------------------------- 
--------------------------------------------- 
 
------------------------ 
------------------------ 
------------------------ 
------------------------ 
-7-7-7-7-7-7-7-7-7-7---- 
------------------------ 
 
------------------14p17p21p22p24^^~~~~- 
----------------14--------------------- 
-18p16--------14----------------------- 
------19p18p16------------------------- 
--------------------------------------- 
--------------------------------------- 
 
late night you party until it's light while pointing at the sky... 
------------------------------------------------------ 
------------------------------------------------------ 
---------------------------6-6-9-999/11-11/14-14-14-14- 
-4-4-/--11-11/-12-12/14-14-4-4-7-777/9--9-/12-12-12-12- 
-4-4-/--11-11/-12-12/14-14----------------------------- 
-2-2-/---9-9-/-10-10/12-12----------------------------- 
 
 
 
------------------------------------------------------------------------- 
-----------------13-11-----11-------------------------------------------- 
-10--13-12----10--------13----13-12----10-12-13-12-10---10-12-13-12-10--- 
-----------13-----------------------13----------------13--------------13- 
------------------------------------------------------------------------- 
------------------------------------------------------------------------- 
 
------------------------------------------------------ 
------------------------------------------------------ 
---------------------------6-6-9-999/11-11/14-14-14-14- (play during riff) 
-4-4-/--11-11/-12-12/14-14-4-4-7-777/9--9-/12-12-12-12- 
-4-4-/--11-11/-12-12/14-14----------------------------- 
-2-2-/---9-9-/-10-10/12-12----------------------------- 
 
wash your hands in the lake of your blood.. 
 
------------------------------------------------------ 
------------------------------------------------------ 
---------------------------6-6-9-999/11-11/14-14-14-14- 
-4-4-/--11-11/-12-12/14-14-4-4-7-777/9--9-/12-12-12-12- 
-4-4-/--11-11/-12-12/14-14----------------------------- 
-2-2-/---9-9-/-10-10/12-12----------------------------- 
                          just before you die.. 
 
------------------------------------------------------------------------- 
-----------------13-11-----11-------------------------------------------- 
-10--13-12----10--------13----13-12----10-12-13-12-10---10-12-13-12-10--- 
-----------13-----------------------13----------------13--------------13- 
------------------------------------------------------------------------- 
------------------------------------------------------------------------- 
..Bodom Beach Terror! 
 
 
--------------------------------------------------------- 
---------------------------------------------------------  
--------------------------------------------------------- 
-4---------4-5-4---------7-5-4-----------4-5-4-----------   
-4---------4-5-4---------7-5-4-----------4-5-4----------- 
-2-2222-22-2-3-2-2222-22-5-3-2-2222-22---2-3-2-0-0-0-0-0- 
   .... ..       .... ..       .... ..         . . . . . 
 
 
Rhythm to Keyboard Solo 
--------------------------------------------------------- 
---------------------------------------------------------  
--------------------------------------------------------- 
-4---------4-5-4---------7-5-4-----------4-5-4-----------   
-4---------4-5-4---------7-5-4-----------4-5-4----------- 
-2-2222-22-2-3-2-2222-22-5-3-2-2222-22---2-3-2-0-0-0-0-0- 
   .... ..       .... ..       .... ..         . . . . . 
 
 
 
------------------------------------------------ 
------------------------------------------------ 
------------------------------------------------ 
-4-----------------4---------4-5-4---------7-5-- 
-4-----------------4---------4-5-4---------7-5-- 
-2-2222-22-0000000-2-2222-22-2-3-2-2222-22-5-3-- 
   .... ..           .... ..       .... .. 
 
 
--------------------------------------------------------- 
---------------------------------------------------------  
--------------------------------------------------------- 
-4---------4-5-4---------7-5-4-----------4-5-4-----------   
-4---------4-5-4---------7-5-4-----------4-5-4----------- 
-2-2222-22-2-3-2-2222-22-5-3-2-2222-22---2-3-2-0-0-0-0-0- 
   .... ..       .... ..       .... ..         . . . . . 
 
 
------------------------------------------------------------------------ 
------------------------------------------------------------------------ 
------------------------------------------------------------------------ 
-7---------7-8-7-------------------------------------------------------- 
-7---------7-8-7---------10-8-7---------7-8-7--------------------------- 
-5-5555-55-5-6-5-5555-55-8--6-5-5555-55-5-6-5-5-5-5-5-3-3-3-3-3-3-3-3--- 
   .... ..       .... ..        .... ..        
 
-------------------------------------------------- 
-------------------------------------------------- 
-------------------------------------------------- 
-4-----------------------7-5----4---------5-4-2--- 
-4---------4-5-7---------7-5----4---------5-4-2--- 
-2-2222-22-2-3-5-5555-55-5-3----2-2222-22-3-2-0--- 
   .... ..       .... ..         .... .. 
 
 
 
   Outro 
---------------------------------- 
---------------------------------- 
---------------------7-7-5-5------ 
-7-7-7-7-7-7-5-5-7-7---------5-5-- 
---------------------------------- 
---------------------------------- 
 
---------------------------------- 
---------------------------------- 
---------------------7-7-5-5------ 
-7-7-7-7-7-7-5-5-7-7---------5-5-- 
---------------------------------- 
---------------------------------- 
 
----------------------------------- 
---------------------10-10-8-8----- 
-9-9-9-9-9-9-7-7-9-9-----------7-7- 
----------------------------------- 
----------------------------------- 
----------------------------------- 
 
----------------------------------- 
---------------------10-10-8-8----- 
-9-9-9-9-9-9-7-7-9-9-----------7-7- 
----------------------------------- 
----------------------------------- 
----------------------------------- 
 
----------------------------------- 
---------------------10-10-8-8----- 
-9-9-9-9-9-9-7-7-9-9-----------7-7- 
----------------------------------- 
----------------------------------- 
----------------------------------- 
 
----------------------------------- 
---------------------10-10-8-8----- 
-9-9-9-9-9-9-7-7-9-9-----------7-7- 
----------------------------------- 
----------------------------------- 
----------------------------------- 
 
-------------------------- 
-------------------------- 
-9--7--5--4--2------------ 
-7--5--3--2--0--5-----2--- 
----------------3--5--0--- 
-------------------3------ 
 
 
 
 
 
 
 

		  

auto scroll beats size up size down change color hide chords drawings
tab show chords e-chords YouTube Clip e-chords hide all tabs e-chords go to top tab

share