Chad Vangaalen

Cut Off My Hands

Chad Vangaalen

tabs

by  BOMBAXXX

save to print version add songbook text version e-mail correct tuner
chordsukulelecavacokeyboardtabbassdrumsharmonicaflute Guitar Pro
close

there isn't a video lesson for this song

chords

Cut Off My Hands

	  		

e|------0----------------------------------------------------------------------| 
B|--1-------1---0-------0-----3-1---0---------------0--------------------------| 
G|------------------0-------2-----0-----0-------0-------0----------------------| 
D|--2-2---2---2-------------0---------------2---------------2------------------| 
A|------------------------------3---2-2---2---2---2---2---2---2----------------| 
E|--------------3-3---3---3----------------------------------------------------| 

OR 

The way Chad probably plays it - Drop D  

e|-----------------------------------------------------------------------------| 
B|------5---------------------------0---------------0--------------------------| 
G|--5-------5---4-------4-----7-5-------0-------0-------0----------------------| 
D|------------------5-------7-----5---------2---------------2------------------| 
A|--7-7---7---7-------------5---3---2-2---2---2---2---2---2---2----------------| 
D|--------------5-5---5---5----------------------------------------------------| 

D leading into the Chorus 

e|---------------------| 
B|---------------------| 
G|---------------------| 
D|----4---4---4--?-----| 
A|---------------?-----| 
D|--0---0---0----?-----| 

Chorus :  Back and forth between G C with a D thrown in 
		  

Full key step upFull key step up
Half key step upHalf key step up
Half key step downHalf key step down
Full key step downFull key step down
hide glossary

See also:

tabs Sum 41 - Pain For Pleasure tabs Sum 41 - Slipping Away tabs The Weeknd - Rolling Stone tabs Sum 41 - Some Say tabs Sum 41 - The Hell Song tabs Mac Demarco - Freaking Out The Neighborhood
e-chords

Other versions:

tabs Chad Vangaalen - Cut Off My Hands
auto scroll beats size up size down change color hide chords drawings
tab show chords e-chords YouTube Clip e-chords hide all tabs e-chords go to top tab

share