The Weeknd

Earned It

The Weeknd

tabs Expert expert

by  EDUCASTILHO

save to print version add songbook text version e-mail correct tuner
chordsukulelecavacokeyboardtabbassdrumsharmonicaflute Guitar Pro
close
earned-it-by-the-weeknd

there is a video lesson for this song

chords

Earned It

	  		

e|----------------------------------------------------------------------------| 
B|----------------------------------------------------------------------------| 
G|----------------------------------------------------------------------------| 
D|----10---12h---10-----------------------------------------------------------| 
A|-------------------10---8---------8----10-----------------------------------| 
E|-----------------------------10---------------------------------------------| 

"Cause I see nobody, nobody but you, you, you" 

e|---------------------------------------------------------------------------| 
B|---------------------------------------------------------------------------| 
G|---------------------------------------------------------------------------| 
D|---10----12h----10---------------10-------------10-------------------------| 
A|---------------------12----10--------12---10---------12---10---8---10------| 
E|---------------------------------------------------------------------------| 

"...Hey, hey" ... "So I love when you call unexpected" 

e|---------------------------------------------------------------------------| 
B|--------------------------10---13---15--13--10---10------------------------| 
G|---10-------------------------------------------------12-------------------| 
D|---------12----------------------------------------------------------------| 
A|---------------------------------------------------------------------------| 
E|---------------------------------------------------------------------------| 

"Cause I hate when the moment's expected" "So I'ma care for you, you, you" 

e|--------------------------------|-------------------------------------------| 
B|--10---13--15--13--10--10--13---|----10---8---6--------10---8--8------------| 
G|--------------------------------|-----------------7---------------7---------| 
D|--------------------------------|-------------------------------------------| 
A|--------------------------------|-------------------------------------------| 
E|--------------------------------|-------------------------------------------| 

"I'ma care for you, you, you, you, yeah" "Cause girl you're perfect" 

e|---------------------------------------------------------------------------| 
B|---10---8---6-------8------------10----------------------10----------------| 
G|----------------7-------7-7-7----------10--12--7-----7-------12--7---------| 
D|---------------------------------------------------------------------------| 
A|---------------------------------------------------------------------------| 
E|---------------------------------------------------------------------------| 

"You're always worth it" "And you deserve it 
The way you work it" 

e|---------------------------------------------------------------------------| 
B|---10--------------------10------------------------------------------------| 
G|-------12----7---10--12-------2X-------------------------------------------| 
D|---------------------------------------------------------------------------| 
A|---------------------------------------------------------------------------| 
E|---------------------------------------------------------------------------| 



 
		  

auto scroll beats size up size down change color hide chords drawings
tab show chords e-chords YouTube Clip e-chords hide all tabs e-chords go to top tab

share