César Oliveira e Rogério Melo

Cabanha Toro Passo

César Oliveira e Rogério Melo

tabs Beginner beginner

by  FELIPEDM

save to print version add songbook text version e-mail correct tuner
chordsukulelecavacokeyboardtabbassdrumsharmonicaflute Guitar Pro
close

there isn't a video lesson for this song

chords

Cabanha Toro Passo

	  		E----------10-9-8-7-6-------10---9--------6---5--------5-------------------------------| 
B--10-9-10------------8-7-8----8----8-7-8---8----6-5-6---6-8--------6---5---------------| 
G-------------------------------------------------------------7-6-7---7------------------| 
D----------------------------------------------------------------------------------------| 
A---------------------------------------------------------------------------------------| 
E--------------------------------------------------------------------------------------| 

E--------------------------------------------------------------------------------------| 
B------5-8-6-5--------------------------------------------------------------------------| 
G----6---------7-6-----------------------------------------------------------------------| 
D--7---------------8-7-8-7-5-----5-------------------------------------------------------| 
A----------------------------8-7----8-7-5-4-5-7-8-5-------------------------------------| 
E--------------------------------------------------------------------------------------| 

E----------10-9-8-7-6----------13----------12----------13-12-11-10-9-10-11-12----------| 
B--10-9-10------------11-10-11----11-10-11----11-10-11----------------------------------| 
G----------------------------------------------------------------------------------------| 
D----------------------------------------------------------------------------------------| 
A---------------------------------------------------------------------------------------| 
E--------------------------------------------------------------------------------------| 

E----------12---------10-------10-9----9-10-11-12-10-9----10-9-------------------------| 
B--10-9-10----10-9-10---10-9-10-----13-----------------11------11-10-8--11-10-8---------| 
G------------------------------------------------------------------------------10-9-8~7--| 
D----------------------------------------------------------------------------------------| 
A---------------------------------------------------------------------------------------| 
E--------------------------------------------------------------------------------------| 

E----------10-9-8-7-6-------10---9--------6---5--------5-------------------------------| 
B--10-9-10------------8-7-8----8----8-7-8---8----6-5-6---6-8--------6---5---------------| 
G-------------------------------------------------------------7-6-7---7------------------| 
D----------------------------------------------------------------------------------------| 
A---------------------------------------------------------------------------------------| 
E--------------------------------------------------------------------------------------| 

E--------------------------------------------------------------------------------------| 
B------5-8-6-5--------------------------------------------------------------------------| 
G----6---------7-6-----------------------------------------------------------------------| 
D--7---------------8-7-8-7-5-----5-------------------------------------------------------| 
A----------------------------8-7----8-7-5-4-5-7-8-5-------------------------------------| 
E--------------------------------------------------------------------------------------| 

E----------10-9-8-7-6----------13----------12----------13-12-11-10-9-10-11-12----------| 
B--10-9-10------------11-10-11----11-10-11----11-10-11----------------------------------| 
G----------------------------------------------------------------------------------------| 
D----------------------------------------------------------------------------------------| 
A---------------------------------------------------------------------------------------| 
E--------------------------------------------------------------------------------------| 

E----------12---------10-------10-9----9-10-11-12-10-9----10-9-------------------------| 
B--10-9-10----10-9-10---10-9-10-----13-----------------11------11-10-8--11-10-8---------| 
G------------------------------------------------------------------------------10-9-7----| 
D----------------------------------------------------------------------------------------| 
A---------------------------------------------------------------------------------------| 
E--------------------------------------------------------------------------------------| 

E----------------12-13--/ 
B-----------10----------\ 
G----7-10---------------/ 
D--7--------------------\ 
A-----------------------/ 
E-----------------------\ 
                                                


 !gracias! 

		  

auto scroll beats size up size down change color hide chords drawings
tab show chords e-chords YouTube Clip e-chords hide all tabs e-chords go to top tab

share