Caballo Dorado

No Rompas Mi Corazon

Caballo Dorado

tabs Advanced advanced

by  FGMRETRO

save to print version add songbook text version e-mail correct tuner
chordsukulelecavacokeyboardtabbassdrumsharmonicaflute Guitar Pro
close

there isn't a video lesson for this song

chords

No Rompas Mi Corazon

	  		------------------------------------------------------ 
------------------------------------------------------ 
------------------------------------------------------ 
----------------------------------------------3-3----- 
--0-1-1----------1-1----------1-1-------1-3/5-----5-3- 
--------3-1--1-3-----3-1--1-3-----3-1-3--------------- 

------------------------------------------------------ 
------------------------------------------------------ 
------------------------------------------------------ 
-----3-3----------3-3-3---------3-3---------------3-5b 
-3-5-----5-3--3-5-------5-3-3-5-----5-3-----1-3/5----- 
----------------------------------------1-3----------- 
		  

See also:

tabs Caballo Dorado - Payaso De Rodeo tabs Caballo Dorado - No Rompas Mi Corazon
e-chords

Other versions:

tabs Caballo Dorado - No Rompas Mi Corazon
auto scroll beats size up size down change color hide chords drawings
tab show chords e-chords YouTube Clip e-chords hide all tabs e-chords go to top tab

share with facebook