Caballo Dorado

Payaso De Rodeo

Caballo Dorado

tabs Expert expert

by  FGMRETRO

save to print version add songbook text version e-mail correct tuner
chordsukulelecavacokeyboardtabbassdrumsharmonicaflute Guitar Pro
close

there isn't a video lesson for this song

chords

Payaso De Rodeo

	  		Intro 
e ----------10-----------10-----------10-10-------------------------- 
B -10-12-10----10-12-10------10-12-10-------12-10-------------------- 
G ------------------------------------------------------------------- 
D ------------------------------------------------------------------- 
A ------------------------------------------------------------------- 
E ------------------------------------------------------------------- 

e ----------10-10---------------------------------------------------- 
B -10-12-10-------12-10-12-10-13-13-12-10--10-12-10-13-13-12-10-12-10 
G ------------------------------------------------------------------- 
D ------------------------------------------------------------------- 
A ------------------------------------------------------------------- 
E ------------------------------------------------------------------- 

e ------------------------------------------------------------------- 
B -13-13-12-10--10-12-10-13-10-12-10--------------------------------- 
G -----------------------------------11----9----------11------------- 
D --------------------------------------12---12----12----12---------- 
A ------------------------------------------------------------------- 
E ------------------------------------------------------------------- 

e ----------10-10-------------10-10-----------------11-------11------ 
B -10-12-10-------12-10-12-10-------12-10--10-12-10----12-10----12-10 
G ------------------------------------------------------------------- 
D ------------------------------------------------------------------- 
A ------------------------------------------------------------------- 
E ------------------------------------------------------------------- 

e ------------------------------------------------------------------- 
B -12-10-13-13-12-10---10-12-10-13-12-10-13-12-10-13-12-10-13-12-10-- 
G ------------------------------------------------------------------- 
D ------------------------------------------------------------------- 
A ------------------------------------------------------------------- 
E ------------------------------------------------------------------- 

e ---------------------------------- 
B -10-12-10-13-10-12-10------------- 
G ----------------------11----9----- 
D -------------------------12---12-- 
A ---------------------------------- 
E ---------------------------------- 

Esta es la parte del violin 
e---------10-10-------------10-----------------10-10--------------------- 
B-10h12p10------12p10-12p10----12p10---10h12p10-----12p10-12p10-13-12p10- 
G------------------------------------------------------------------------ 
D------------------------------------------------------------------------ 
A------------------------------------------------------------------------ 
E------------------------------------------------------------------------ 

e---------------------------------------------------------- 
B-10h12p10-13-13-12p10-12p10-13-12p10-10h12p10-13p10-12p10- 
G---------------------------------------------------------- 
D---------------------------------------------------------- 
A---------------------------------------------------------- 
E---------------------------------------------------------- 


e-------------------- 
B-------------------- 
G-11----9--------11-- 
D----12---12---12--12 
A-------------------- 
E-------------------- 

e----------10-10------------10------------------ 
B-10h12p10------12p10-12p10----12p10---10h12p10- 
G----------------------------------------------- 
D----------------------------------------------- 
A----------------------------------------------- 
E----------------------------------------------- 

e-10---10--------------------- 
B---10---10-13-12p10-10h12p10- 
G----------------------------- 
D----------------------------- 
A----------------------------- 
E----------------------------- 

e---------------------------------------------------------- 
B-13p12p10-13p12p10-13p12p10-13p12p10-10h12p10-13p10-12p10- 
G---------------------------------------------------------- 
D---------------------------------------------------------- 
A---------------------------------------------------------- 
E---------------------------------------------------------- 

e------------- 
B------------- 
G-11----9----- 
D----12---12-- 
A------------- 
E------------- 
		  

See also:

tabs Caballo Dorado - Payaso De Rodeo tabs Caballo Dorado - No Rompas Mi Corazon
e-chords

Other versions:

tabs Caballo Dorado - Payaso De Rodeo
auto scroll beats size up size down change color hide chords drawings
tab show chords e-chords YouTube Clip e-chords hide all tabs e-chords go to top tab

share with facebook