Bullet for my Valentine

You Want A Battle Heres A War

Bullet for my Valentine

tabs

by  JOV-CORREA

save to print version add songbook text version e-mail correct tuner
chordsukulelecavacokeyboardtabbassdrumsharmonicaflute Guitar Pro
close

there isn't a video lesson for this song

chords

You Want A Battle Heres A War

	  		Intro (0:00 - 0:43) 

Guitar 1 



HERE'S A WAR" 

   1   &   2   &   3   &   4   &     1   &   2   &   3   &   4   &      
D|---------------------------------|---------------------------------| 
A|---------------------------------|---------------------------------| 
F|---------------------------------|---------------------------------| x7 
C|-------2~----------------------2~|---------------------------------| 
G|-2-2-2-2~----2---2-2-----2-2-2-2~|-----2---2-2-----3-2-0-2-3-2-0---| 
C|-2-2-2-2~----2---2-2-----2-2-2-2~|-----2---2-2-------------------5-| 
   . . .       .   . .     . . .         .   . .     . . . . . . . . 

   1   &   2   &   3   &   4   &     1   &   2   &   3   &   4   &      
D|---------------------------------|----------------------------------| 
A|---------------------------------|----------------------------------| 
F|---------------------------------|----------------------------------| 
C|-------2~------------------------|-2~----4~----5~--5~----4~----2~---| 
G|-2-2-2-2~----2---2-2-----2-2-2-2-|-0~----2~----3~--3~----2~----0~---| 
C|-2-2-2-2~----2---2-2-----2-2-2-2-|----------------------------------| 
   . . .       .   . .     . . . . 

Guitar 2 

   1   &   2   &   3   &   4   &     1   &   2   &   3   &   4   &     
D|---------------------------------|---------------------------------| 
A|---------------------------------|---------------------------------| 
F|-4-----------5-----------4-------|-----5-----------5-4-2-4-5-4-2-0-| x7 
C|---2-2-2-2-2---2-2-2-2-2---2-2-2-|-2-2---2-2-2-2-2-----------------| 
G|---------------------------------|---------------------------------| 
C|---------------------------------|---------------------------------| 
   . . . . . . . . . . . . . . . .   . . . . . . . . . . . . . . . . 

   1   &   2   &   3   &   4   &     1   &   2   &   3   &   4   &     
D|---------------------------------|----------------------------------| 
A|---------------------------------|----------------------------------| 
F|-4-----------5-----------4-------|----------------------------------| 
C|---2-2-2-2-2---2-2-2-2-2---2-2-2-|-2~----4~----5~--5~----4~----2~---| 
G|---------------------------------|-0~----2~----3~--3~----2~----0~---| 
C|---------------------------------|----------------------------------| 
   . . . . . . . . . . . . . . . . 

Guitar 3 

   1   &   2   &   3   &   4   &     1   &   2   &   3   &   4   &     
D|---------------------------------|---------------------------------| 
A|-5-----------6-----------5-------|-----6-----------6-5-3-5-6-5-3---| 
F|---4-4-4-4-4---4-4-4-4-4---4-4-4-|-4-4---4-4-4-4-4---------------5-| x2 
C|---------------------------------|---------------------------------| 
G|---------------------------------|---------------------------------| 
C|---------------------------------|---------------------------------| 
   . . . . . . . . . . . . . . . .   . . . . . . . . . . . . . . . .  

   1   &   2   &   3   &   4   &     1   &   2   &   3   &   4   &     
D|---------------------------------|---------------------------------| 
A|-5-5-5-5-5-5-5-5-5-5-5-5-5-5-5-5-|-5-5-5-5-5-5-5-5-5-5-5-5-5-5-5-5-| 
F|---------------------------------|---------------------------------| x2 
C|---------------------------------|---------------------------------| 
G|---------------------------------|---------------------------------| 
C|---------------------------------|---------------------------------| 
   . . . . . . . . . . . . . . . .   . . . . . . . . . . . . . . . . 

   1   &   2   &   3   &   4   &     1   &   2   &   3   &   4   &     
D|---------------------------------|---------------------------------| 
A|-5-----------6-----------5-------|-----6-----------6-5-3-5-6-5-3---| 
F|---4-4-4-4-4---4-4-4-4-4---4-4-4-|-4-4---4-4-4-4-4---------------5-| x2 
C|---------------------------------|---------------------------------| 
G|---------------------------------|---------------------------------| 
C|---------------------------------|---------------------------------| 
   . . . . . . . . . . . . . . . .   . . . . . . . . . . . . . . . .  

   1   &   2   &   3   &   4   &    
D|---------------------------------| 
A|-5-----------6-----------5-------| 
F|---4-4-4-4-4---4-4-4-4-4---4-4-4-| 
C|---------------------------------| 
G|---------------------------------| 
C|---------------------------------| 
   . . . . . . . . . . . . . . . .  





verse 1 (0:43 - 1:15) 

Guitar 1 

   1   &   2   &   3   &   4   &     1   &   2   &   3   &   4   &      
D|---------------------------------|---------------------------------| 
A|---------------------------------|---------------------------------| 
F|---------------------------------|---------------------------------| 
C|---------------------------------|---------------------------------| 
G|-2---2------------------------3--|-2---2---------------------------|---| 
C|-2---2---------------------------|-2---2---------------------------|   | 
   .   .                             .   .                               | 
   Down...                                           Eyes of shame...    | x2 
                                                                         | 
   1   &   2   &   3   &   4   &     1   &   2   &   3   &   4   &       | 
D|---------------------------------|---------------------------------|   | 
A|---------------------------------|---------------------------------|---| 
F|---------------------------------|---------------------------------| 
C|---------------------------------|-2~----4~----5~--2~----4~----5~--| 
G|-2---2---------------------------|-0~----2~----3~--0~----2~----3~--| 
C|-2---2---------------------------|---------------------------------| 
   .   . 
                                                     Made to feel... 

   1   &   2   &   3   &   4   &     1   &   2   &   3   &   4   &      
D|---------------------------------|---------------------------------| 
A|---------------------------------|---------------------------------| 
F|-----(Sexy vibrato, please)------|-----(Here again, too)-----------| 
C|---------------------------------|---------------------------------| 
G|-2---2---7~----------2---2---2---|-2---2---5~----------2-2-2-2-2-2-|---| 
C|-2---2---------------2---2---2---|-2---2---------------2-2-2-2-2-2-|   | 
   .   .               .   .   .     .   .               . . . . . .     | 
           Your words...                     Cut deep...                 | x2 
                                                                         | 
   1   &   2   &   3   &   4   &     1   &   2   &   3   &   4   &       | 
D|---------------------------------|---------------------------------|   | 
A|---------------------------------|---------------------------------|---| 
F|---------------------------------|---------------------------------| 
C|---------------------------------|-2~----4~----5~--2~----4~----5~--| 
G|-2---2---7~----------2---2---2---|-0~----2~----3~--0~----2~----3~--| 
C|-2---2---------------2---2---2---|---------------------------------| 
   .   .               .   .   . 
           Your lies are             fueled by your need for deceit. 

   1   &   2   &   3   &   4   &     1   &   2   &   3   &   4   &     
D|---------------------------------|---------------------------------| 
A|---------------------------------|---------------------------------| 
F|---------------------------------|---------------------------------| 
C|-2---2---2---2---2---2---2---2---|-4---4---4---4---4~--4~--4~--4~--| 
G|-0---0---0---0---0---0---0---0---|-2---2---2---2---2~--2~--2~--2~--| 
C|---------------------------------|---------------------------------| 
   .   .   .   .   .   .   .   .     .   .   .   .    
                           Now       hear    me      ROAR! 

Guitar 2 

   1   &   2   &   3   &   4   &     1   &   2   &   3   &   4   &      
D|---------------------------------|---------------------------------| 
A|---------------------------------|---------------------------------| 
F|---------------------------------|---------------------------------| 
C|---------------------------------|---------------------------------| 
G|-2---2------------------------3--|-2---2---------------------------|---| 
C|-2---2---------------------------|-2---2---------------------------|   | 
   .   .                             .   .                               | 
   Down...                                           Eyes of shame...    | x2 
                                                                         | 
   1   &   2   &   3   &   4   &     1   &   2   &   3   &   4   &       | 
D|---------------------------------|---------------------------------|   | 
A|---------------------------------|---------------------------------|---| 
F|---------------------------------|-------------0~~~----------------| 
C|---------------------------------|-------4~~~~~~~~~~~~~~~2~~~~~4~~~| 
G|-2---2---------------------------|-7~~~~~~~~~~~~~~~5~~~~~~~~~~~~~~~| 
C|-2---2---------------------------|---------------------------------| 
   .   . 
                                                     Made to feel... 

   1   &   2   &   3   &   4   &     1   &   2   &   3   &   4   &      
D|---------------------------------|---------------------------------| 
A|---------------------------------|---------------------------------| 
F|-----(Sexy vibrato, please)------|-----(Here again, too)-----------| 
C|---------5~----------------------|---------4~----------------------| 
G|-2---2---------------2---2---2---|-2---2---------------2-2-2-2-2-2-|---| 
C|-2---2---------------2---2---2---|-2---2---------------2-2-2-2-2-2-|   | 
   .   .               .   .   .     .   .               . . . . . .     | 
           Your words...                     Cut deep...                 | x2 
                                                                         | 
   1   &   2   &   3   &   4   &     1   &   2   &   3   &   4   &       | 
D|---------------------------------|---------------------------------|   | 
A|---------------------------------|---------------------------------|---| 
F|---------------------------------|---------------------------------| 
C|---------5~----------------------|-2~----4~----5~--2~----4~----5~--| 
G|-2---2---------------2---2---2---|-0~----2~----3~--0~----2~----3~--| 
C|-2---2---------------2---2---2---|---------------------------------| 
   .   .               .   .   . 
           Your lies are             fueled by your need for deceit. 

   1   &   2   &   3   &   4   &     1   &   2   &   3   &   4   &     
D|---------------------------------|---------------------------------| 
A|---------------------------------|---------------------------------| 
F|---------------------------------|---------------------------------| 
C|-2---2---2---2---2---2---2---2---|-4---4---4---4---4~--4~--4~--4~--| 
G|-0---0---0---0---0---0---0---0---|-2---2---2---2---2~--2~--2~--2~--| 
C|---------------------------------|---------------------------------| 
   .   .   .   .   .   .   .   .     .   .   .   .    
                           Now       hear    me      ROAR! 


Guitar 3 (Clean) 

   1   &   2   &   3   &   4   &     1   &   2   &   3   &   4   &     
D|---------------------------------|---------------------------------| 
A|---------------------------------|---------------------------------| 
F|---------0~~~~~~~~~~~~~~~~~~~~~~~|---------------------------------| 
C|-----4~~~~~~~~~~~~~~~~~~~~~~~~~~~|-----2~~~4~~~~~~~~~~~~~~~~~~~~~~~| 
G|-7~~~~~~~~~~~~~~~~~~~~~~~~~~~~~~~|-5~~~~~~~~~~~~~~~~~~~~~~~~~~~~~~~|---| 
C|---------------------------------|---------------------------------|   | 
                                                                         | x2 
   1   &   2   &   3   &   4   &     1   &   2   &   3   &   4   &       | 
D|---------------------------------|---------------------------------|   | 
A|---------------------------------|---------------------------------|---| 
F|---------0~~~~~~~~~~~~~~~~~~~~~~~|---------------------------------| 
C|-----4~~~~~~~~~~~~~~~~~~~~~~~~~~~|---------------------------------| 
G|-7~~~~~~~~~~~~~~~~~~~~~~~~~~~~~~~|---------------------------------| 
C|---------------------------------|---------------------------------| 

Rests for the rest of the verse 





Chorus (1:15 - 1:36) 

Guitar 1 

   1   &   2   &   3   &   4   &     1   &   2   &   3   &   4   &     
D|---------------------------------|---------------------------------| 
A|---------------------------------|---------------------------------| 
F|-(Second time, play 9)-----------|-4~~~~~~~~~~~~~~~~~~~~~~~~~~~~~~~|  
C|-2~~~~~~~~~~~~~~~~~~9)~~~~~~~~~~~|~4~~~~~~~~~~~~~~~~~~~~~~~~~~~~~~~| 
G|-2~~~~~~~~~~~~~~~~~~7)~~~~~~~~~~~|~2~~~~~~~~~~~~~~~~~~~~~~~~~~~~~~~|---| 
C|-2~~~~~~~~~~~~~~~~~~~~~~~~~~~~~~~|~--------------------------------|   | 
                                                                         | 
           I       will    not      take    this    anymore              | 
                                                                         | 
   1   &   2   &   3   &   4   &     1   &   2   &   3   &   4   &       | 
D|---------------------------------|---------------------------------|   | 
A|---------------------------------|---------------------------------|   | 
F|~(Same here)---------------------|~4~~~~~~~~~~~~~~~~~~~~~~~--------|   | x2 
C|~2~~~~~~~~~~~~~~~~~~~~~~~~~~~~~~~|~4~~~~~~~~~~~~~~~~~~~~~~~2---4---|   | 
G|~2~~~~~~~~~~~~~~~~~~~~~~~~~~~~~~~|~2~~~~~~~~~~~~~~~~~~~~~~~0---2---|   | 
C|-2~~~~~~~~~~~~~~~~~~~~~~~~~~~~~~~|---------------------------------|   | 
                                                             .   .       | 
           These   words   will      never       be          ignored     | 
                                                                         | 
   1   &   2   &   3   &   4   &     1   &   2   &   3   &   4   &       | 
D|---------------------------------|---------------------------------|   | 
A|---------------------------------|---------------------------------|---| 
F|-5~~~~~~~~~~~~~~~~~~~~~~~~~~~~~~~|~7~~~~~~~~~~~~~~~~~~~~~~~~~~~~~~~| 
C|-5~~~~~~~~~~~~~~~~~~~~~~~~~~~~~~~|~7~~~~~~~~~~~~~~~~~~~~~~~~~~~~~~~| 
G|-3~~~~~~~~~~~~~~~~~~~~~~~~~~~~~~~|~5~~~~~~~~~~~~~~~~~~~~~~~~~~~~~~~| 
C|---------------------------------|---------------------------------| 

           You     want    a   battle?               Here's a war 

Guitar 2 

   1   &   2   &   3   &   4   &     1   &   2   &   3   &   4   &     
D|---------------------------------|---------------------------------| 
A|---------------------------------|---------------------------------| 
F|-9---9---9---9---9---9---9---9---|-11--11--11--11--11--11--11--11--|  
C|-x---x---x---x---x---x---x---x---|-x---x---x---x---x---x---x---x---| 
G|-7---7---7---7---7---7---7---7---|-9---9---9---9---9---9---9---9---|---| 
C|---------------------------------|---------------------------------|   | 
                                                                         | 
           I       will    not      take    this    anymore              | 
                                                                         | 
   1   &   2   &   3   &   4   &     1   &   2   &   3   &   4   &       | 
D|---------------------------------|---------------------------------|   | 
A|---------------------------------|---------------------------------|   | 
F|-9---9---9---9---9---9---9---9---|-11--11--11--11--11--11--11--11--|   | x2 
C|-x---x---x---x---x---x---x---x---|-x---x---x---x---x---x---x---x---|   | 
G|-7---7---7---7---7---7---7---7---|-9---9---9---9---9---9---9---9---|   | 
C|---------------------------------|---------------------------------|   | 
                                                             .   .       | 
           These   words   will      never       be          ignored     | 
                                                                         | 
   1   &   2   &   3   &   4   &     1   &   2   &   3   &   4   &       | 
D|---------------------------------|---------------------------------|   | 
A|---------------------------------|---------------------------------|---| 
F|-12--12--12--12--12--12--12--12--|-11--11--11--11--11--11--11--11--| 
C|-x---x---x---x---x---x---x---x---|-x---x---x---x---x---x---x---x---| 
G|-10--10--10--10--10--10--10--10--|-9---9---9---9---9---9---9---9---| 
C|---------------------------------|---------------------------------| 

           You     want    a   battle?               Here's a war 




Pre-Verse (1:36 - 1:45) 

Guitars 1, 2 and 3 all play the last four bars of the intro 

Then Guitars 1 and 2 play an additional A power chord (the 2,4,4 one) lasting a whole bar 





verse 2 (1:45 - 2:17) - Same as verse 1 

Chorus (2:17 - 2:39) 






Bridge (2:39 - 3:33) 

Guitar 1 

   1   &   2   &   3   &   4   &     1   &   2   &   3   &   4   &     
D|---------------------------------|---------------------------------| 
A|---------------------------------|---------------------------------| 
F|---------------------------------|---------------------------------| 
C|-2~------------------------------|(2)------------------------------| 
G|-2~------------------------------|(2)------------------------------|---| 
C|-2~------------------------------|(2)------------------------------|   | 
                                                                         | 
                                     oooooOOOOOOoooooo ooooooooo         | 
                                                                         | 
   1   &   2   &   3   &   4   &     1   &   2   &   3   &   4   &       | 
D|---------------------------------|---------------------------------|   | 
A|---------------------------------|---------------------------------|   | 
F|---------------------------------|---------------------------------|   | 
C|-2~------------------------------|(2)------------------------------|   | 
G|-2~------------------------------|(2)------------------------------|   | 
C|-2~------------------------------|(2)------------------------------|   | 
                                                                         | 
           You     want    a         battle?         Here's  a           | x3 
                                                                         | 
   1   &   2   &   3   &   4   &     1   &   2   &   3   &   4   &       | 
D|---------------------------------|---------------------------------|   | 
A|---------------------------------|---------------------------------|   | 
F|-5~------------------------------|(5)------------------------------|   | 
C|-5~------------------------------|(5)------------------------------|   | 
G|-3~------------------------------|(3)------------------------------|   | 
C|---------------------------------|---------------------------------|   | 
                                                                         | 
   war...                            ooooOOOOOOooooo ooooo oo oo oo      | 
                                                                         | 
   1   &   2   &   3   &   4   &     1   &   2   &   3   &   4   &       | 
D|---------------------------------|---------------------------------|   | 
A|---------------------------------|---------------------------------|---| 
F|---------------------------------|---------------------------------| 
C|-0~------------------------------|(0)------------------------------| 
G|-0~------------------------------|(0)------------------------------| 
C|-0~------------------------------|(0)------------------------------| 

           You     want    a         battle?         HERE'S   A WAR!! 

   1   &   2   &   3   &   4   &     1   &   2   &   3   &   4   &     
D|---------------------------------|---------------------------------| 
A|---------------------------------|---------------------------------| 
F|---------------------------------|---------------------------------| 
C|-2~------------------------------|(2)------------------------------| 
G|-2~------------------------------|(2)------------------------------| 
C|-2~------------------------------|(2)------------------------------| 

           (We     will    not       take    this    anymore) 


   1   &   2   &   3   &   4   &     1   &   2   &   3   &   4   &     
D|---------------------------------|---------------------------------| 
A|---------------------------------|---------------------------------| 
F|---------------------------------|---------------------------------| 
C|(2)------------------------------|(2)----------------------2---4---| 
G|(2)------------------------------|(2)----------------------0---2---| 
C|(2)------------------------------|(2)------------------------------| 
                                                             .   . 
           (These  words   will      never   be      ignored) 

   1   &   2   &   3   &   4   &     1   &   2   &   3   &   4   &     
D|---------------------------------|---------------------------------| 
A|---------------------------------|---------------------------------| 
F|-5~------------------------------|-7~------------------------------| 
C|-5~------------------------------|-7~------------------------------| 
G|-3~------------------------------|-5~------------------------------| 
C|---------------------------------|---------------------------------| 

           (You    want    a         battle? Here's  a    war) 

Guitar 2 

   1   &   2   &   3   &   4   &     1   &   2   &   3   &   4   &     
D|---------------------------------|---------------------------------| 
A|-7~~~~~~~~~~~7~~~~~~~~~~~8~~~~~~~|~~~~~8~~~~~~~~~~~8~~~~~~~8~~~~~~~| 
F|---------9~~~~~~~~~~~9~~~~~~~~~~~|~9~~~~~~~~~~~9~~~~~~~9~~~~~~~9~~~| 
C|---------------------------------|---------------------------------| 
G|---------------------------------|---------------------------------|---| 
C|---------------------------------|---------------------------------|   | 
                                                                         | 
                                     oooooOOOOOOoooooo ooooooooo         | 
                                                                         | 
   1   &   2   &   3   &   4   &     1   &   2   &   3   &   4   &       | 
D|---------------------------------|---------------------------------|   | 
A|~7~~~~~~~~~~~7~~~~~~~~~~~8~~~~~~~|~~~~~8~~~~~~~~~~~8~~~~~~~8~~~~~~~|   | 
F|~~~~~~~~~9~~~~~~~~~~~9~~~~~~~~~~~|~9~~~~~~~~~~~9~~~~~~~9~~~~~~~9~~~|   | 
C|---------------------------------|---------------------------------|   | 
G|---------------------------------|---------------------------------|   | 
C|---------------------------------|---------------------------------|   | 
                                                                         | 
           You     want    a         battle?         Here's  a           | x3 
                                                                         | 
   1   &   2   &   3   &   4   &     1   &   2   &   3   &   4   &       | 
D|---------------------------------|---------------------------------|   | 
A|~10~~~~~~~~~~10~~~~~~~~~~10~~~~~~|~~~~~10~~~~~~~~~~10~~~~~~10~~~~~~|   | 
F|~~~~~~~~~9~~~~~~~~~~~9~~~~~~~~~~~|~9~~~~~~~~~~~9~~~~~~~9~~~~~~~9~~~|   | 
C|---------------------------------|---------------------------------|   | 
G|---------------------------------|---------------------------------|   | 
C|---------------------------------|---------------------------------|   | 
                                                                         | 
   war...                            ooooOOOOOOooooo ooooo oo oo oo      | 
                                                                         | 
   1   &   2   &   3   &   4   &     1   &   2   &   3   &   4   &       | 
D|---------------------------------|---------------------------------|   | 
A|~7~~~~~~~~~~~7~~~~~~~~~~~7~~~~~~~|~~~~~7~~~~~~~~~~~7~~~~~~~7~~~~~~~|---| 
F|---------7~~~~~~~~~~~7~~~~~~~~~~~|~7~~~~~~~~~~~7~~~~~~~7~~~~~~~7~~~| 
C|---------------------------------|---------------------------------| 
G|---------------------------------|---------------------------------| 
C|---------------------------------|---------------------------------| 

           You     want    a         battle?         HERE'S   A WAR!! 

   1   &   2   &   3   &   4   &     1   &   2   &   3   &   4   &     
D|---------------------------------|---------------------------------| 
A|~8~------------------------------|(8)------------------------------| 
F|~9~------------------------------|(9)------------------------------| 
C|---------------------------------|---------------------------------| 
G|---------------------------------|---------------------------------| 
C|---------------------------------|---------------------------------| 

           (We     will    not       take    this    anymore) 

   1   &   2   &   3   &   4   &     1   &   2   &   3   &   4   &     
D|---------------------------------|---------------------------------| 
A|(8)------------------------------|(8)------------------------------| 
F|(9)------------------------------|(9)------------------------------| 
C|---------------------------------|-------------------------2---4---| 
G|---------------------------------|-------------------------0---2---| 
C|---------------------------------|---------------------------------| 
                                                             .   . 
           (These  words   will      never   be      ignored) 

   1   &   2   &   3   &   4   &     1   &   2   &   3   &   4   &     
D|---------------------------------|---------------------------------| 
A|---------------------------------|---------------------------------| 
F|-5~------------------------------|-7~------------------------------| 
C|-5~------------------------------|-7~------------------------------| 
G|-3~------------------------------|-5~------------------------------| 
C|---------------------------------|---------------------------------| 

           (You    want    a         battle? Here's  a    war) 





Final Chorus (3:33 - 3:55) 

Guitar 1 

   1   &   2   &   3   &   4   &     1   &   2   &   3   &   4   &     
D|---------------------------------|---------------------------------| 
A|---------------------------------|---------------------------------| 
F|---------------------------------|-4~~~~~~~~~~~~~~~~~~~~~~~~~~~~~~~|  
C|-2~~~~~~~~~~~~~~~~~~~~~~~~~~~~~~~|~4~~~~~~~~~~~~~~~~~~~~~~~~~~~~~~~| 
G|-2~~~~~~~~~~~~~~~~~~~~~~~~~~~~~~~|~2~~~~~~~~~~~~~~~~~~~~~~~~~~~~~~~| 
C|-2~~~~~~~~~~~~~~~~~~~~~~~~~~~~~~~|~--------------------------------| 
                                                                       
           We      will    not      take    this    anymore            
                                                                       
   1   &   2   &   3   &   4   &     1   &   2   &   3   &   4   &     
D|---------------------------------|---------------------------------| 
A|---------------------------------|---------------------------------| 
F|~--------------------------------|-4~~~~~~~~~~~~~~~~~~~~~~~--------| 
C|~2~~~~~~~~~~~~~~~~~~~~~~~~~~~~~~~|~4~~~~~~~~~~~~~~~~~~~~~~~2---4---| 
G|~2~~~~~~~~~~~~~~~~~~~~~~~~~~~~~~~|~2~~~~~~~~~~~~~~~~~~~~~~~0---2---| 
C|-2~~~~~~~~~~~~~~~~~~~~~~~~~~~~~~~|~--------------------------------| 
                                                             .   .     
           These   words   will      never       be          ignored   
                                                                       
   1   &   2   &   3   &   4   &     1   &   2   &   3   &   4   &     
D|---------------------------------|---------------------------------| 
A|---------------------------------|---------------------------------| 
F|-5~~~~~~~~~~~~~~~~~~~~~~~~~~~~~~~|~7~~~~~~~~~~~~~~~~~~~~~~~~~~~~~~~| 
C|-5~~~~~~~~~~~~~~~~~~~~~~~~~~~~~~~|~7~~~~~~~~~~~~~~~~~~~~~~~~~~~~~~~| 
G|-3~~~~~~~~~~~~~~~~~~~~~~~~~~~~~~~|~5~~~~~~~~~~~~~~~~~~~~~~~~~~~~~~~| 
C|---------------------------------|---------------------------------| 

           You     want    a   battle?               Here's a war 

   1   &   2   &   3   &   4   &     1   &   2   &   3   &   4   &     
D|---------------------------------|---------------------------------| 
A|---------------------------------|---------------------------------| 
F|-9~~~~~~~~~~~~~~~~~~~~~~~~~~~~~~~|~4~~~~~~~~~~~~~~~~~~~~~~~~~~~~~~~|  
C|-9~~~~~~~~~~~~~~~~~~~~~~~~~~~~~~~|~4~~~~~~~~~~~~~~~~~~~~~~~~~~~~~~~| 
G|-7~~~~~~~~~~~~~~~~~~~~~~~~~~~~~~~|~2~~~~~~~~~~~~~~~~~~~~~~~~~~~~~~~| 
C|---------------------------------|---------------------------------| 
                                                                       
           We      will    not      take    this    anymore            
                                                                       
   1   &   2   &   3   &   4   &     1   &   2   &   3   &   4   &     
D|---------------------------------|---------------------------------| 
A|---------------------------------|---------------------------------| 
F|~9~~~~~~~~~~~~~~~~~~~~~~~~~~~~~~~|~----------------4~--------------| 
C|~9~~~~~~~~~~~~~~~~~~~~~~~~~~~~~~~|~4-----4-----4---4~----2-----4---| 
G|~7~~~~~~~~~~~~~~~~~~~~~~~~~~~~~~~|~2-----2-----2---2~----0-----2---| 
C|---------------------------------|---------------------------------| 
                                     .     .     .         .     .        
           These   words   will      never       be          ignored   
                                                                       
   1   &   2   &   3   &   4   &     1   &   2   &   3   &   4   &     
D|---------------------------------|---------------------------------| 
A|---------------------------------|---------------------------------| 
F|-5~~~~~~~~~~~~~~~~~~~~~~~~~~~~~~~|~7~~~~~~~~~~~~~~~----------------| 
C|-5~~~~~~~~~~~~~~~~~~~~~~~~~~~~~~~|~7~~~~~~~~~~~~~~~(sudden silence)| 
G|-3~~~~~~~~~~~~~~~~~~~~~~~~~~~~~~~|~5~~~~~~~~~~~~~~~----------------| 
C|---------------------------------|---------------------------------| 

           You     want    a   battle?               HERE'S A WAR!! 

Guitar 2 

It's up to you here how you want to play it. It's played with legato, so I like to tap the 7 on the 
7-5-3-5 then hammer on the 4-2-0-2, 5-4-2-4 and 7-5-4-5 patterns without picking any of the first notes. 

   1   &   2   &   3   &   4   &     1   &   2   &   3   &   4   &     
D|-7-5-3-5-7-5-3-5-7-5-3-5-7-5-3-5-|---------------------------------| 
A|---------------------------------|---------------------------------| 
F|---------------------------------|-4-2-0-2-4-2-0-2-4-2-0-2-4-2-0-2-| x2 
C|---------------------------------|---------------------------------| 
G|---------------------------------|---------------------------------| 
C|---------------------------------|---------------------------------| 

           We      will    not      take    this    anymore            

   1   &   2   &   3   &   4   &     1   &   2   &   3   &   4   &     
D|---------------------------------|---------------------------------| 
A|---------------------------------|---------------------------------| 
F|-5-4-2-4-5-4-2-4-5-4-2-4-5-4-2-4-|-7-5-4-5-7-5-4-5-7-5-4-5-7-5-4-5-| 
C|---------------------------------|---------------------------------| 
G|---------------------------------|---------------------------------| 
C|---------------------------------|---------------------------------| 

           You     want    a   battle?               Here's a war 

   1   &   2   &   3   &   4   &     1   &   2   &   3   &   4   &     
D|-7-5-3-5-7-5-3-5-7-5-3-5-7-5-3-5-|---------------------------------| 
A|---------------------------------|---------------------------------| 
F|---------------------------------|-4-2-0-2-4-2-0-2-4-2-0-2-4-2-0-2-| x2 
C|---------------------------------|---------------------------------| 
G|---------------------------------|---------------------------------| 
C|---------------------------------|---------------------------------| 

           We      will    not      take    this    anymore            

   1   &   2   &   3   &   4   &     1   &   2   &   3   &   4   &     
D|---------------------------------|---------------------------------| 
A|---------------------------------|---------------------------------| 
F|-5-4-2-4-5-4-2-4-5-4-2-4-5-4-2-4-|-7-5-4-5-7-5-4-5-----------------| 
C|---------------------------------|-----------------(sudden silence)| 
G|---------------------------------|---------------------------------| 
C|---------------------------------|---------------------------------| 

           You     want    a   battle?               HERE'S A WAR!! 




Outro (3:55 - 4:10) 

Guitars 1, 2 and 3 all repeat their respective parts of the intro. Difference is, there's a halt in there. I'm 
sure you'll be able to work out where it is and how long it lasts before you resume riffing. :P (HIntro: It's at 
4:03, when Matt does the aggressive hand-across-throat motion in the music video. He really got into that.) 






************************************ 

| .   palm mute 
| /   slide up 
| \   slide down 
| h   hammer-on 
| p   pull-off 
| ~   vibrato/let ring 
| +   harmonic 
| x   Mute note 
| b   Bend 
| pb  Pre-bend 
| br  Bend release 
| pbr Pre-bend release 
| brb Bend release bend 
| (0) Tied note 

************************************ 
		  

See also:

tabs Bullet for my Valentine - Tears dont fall tabs Bullet for my Valentine - Army Of Noise tabs Bullet for my Valentine - Room 409 tabs Bullet for my Valentine - Dirty Little Secret tabs Bullet for my Valentine - Alone tabs Bullet for my Valentine - Tears Don't Fall (Acoustic)
e-chords

Other versions:

tabs Bullet for my Valentine - You Want A Battle Heres A War
auto scroll beats size up size down change color hide chords drawings
tab show chords e-chords YouTube Clip e-chords hide all tabs e-chords go to top tab

share