Bullet for my Valentine

Just Another Star

Bullet for my Valentine

tabs Intermediate intermediate

by  RAMON BORGES

save to print version add songbook text version e-mail correct tuner
chordsukulelecavacokeyboardtabbassdrumsharmonicaflute Guitar Pro
close

there isn't a video lesson for this song

chords

Just Another Star

	  		{E}------- 
{B}------- 
{G}------- 
{D}------- 
{A}------- 
{D}------- 
 
-----------------------------------------------------------		---------------------------------------------------------------------------------------------- 
-----------------------------------------------------------		----------------------------------------------------------------10/11--11--11--11~------------ 
----8-----7-----8------10-----8-----7-----8~---------------  2x	        ----8----7-----8-----10-----8-----7------------8----7----8------------------------------------    
-----------------------------------------------------------		----------------------------------------8~---------------------------------------------------- 
-----------------------------------------------------------		---------------------------------------------------------------------------------------------- 
-----------------------------------------------------------		---------------------------------------------------------------------------------------------- 
 
-----------------------------------------------------------		---------------------------------------------------------------------------------------------- 
-----------------------------------------------------------		----------------------------------------------------------------10/11--11--11--11~------------ 
----8-----7-----8------10-----8-----7-----8~---------------  2x	        ----8----7-----8-----10-----8-----7------------8----7----8------------------------------------    
-----------------------------------------------------------		----------------------------------------8~---------------------------------------------------- 
-----------------------------------------------------------		---------------------------------------------------------------------------------------------- 
-----------------------------------------------------------		---------------------------------------------------------------------------------------------- 
 
-----------------------------------------------------------		---------------------------------------------------------------------------------------------- 
-----------------------------------------------------------		---------------------------------------------------------------------------------------------- 
----------------------------------------------------------- 4x	        ---------------------------------------------------------------------------------------------- 
---------8----------7---------10---------8-----------------		---------------------------------------------------------------------------------------------- 
---------6----------5----------8---------6-----------------	        -------------3-----------3-----------3-------------3---4---3--------------3--------------3---- 
--0--0-------0--0--------0--0------0--0--------------------		-----0---0-------0---0------0---0--------0---0-------------------0---0---------0---0---------- 
  X  X       X  X        X  X      X  X			                     X   X       X   X      X   X        X   X                   X   X         X   X 
 
-------------------------	----------------------------------------------------------------- 
-------------------------	----------------------------------------------------------------- 
-------------------------	----------------------------------------------------------------- 
-------------------------	-----0---3---0---3---0---3---0---3---4---3---0---3---0---3------- 
--12/5-------------------	-----0---3---0---3---0---3---0---3---4---3---0---3---0---3------- 
--12/5-------------------	-----0---3---0---3---0---3---0---3---4---3---0---3---0---3------- 
			             X   X   X   X   X   X   X   X   X   X   X   X   X   X 
 
-----------------------------------------------------------		---------------------------------------------------------------------------------------------- 
-----------------------------------------------------------		----------------------------------------------------------------10/11--11--11--11~------------ 
----8-----7-----8------10-----8-----7-----8~---------------  2x	        ----8----7-----8-----10-----8-----7------------8----7----8------------------------------------    
-----------------------------------------------------------		----------------------------------------8~---------------------------------------------------- 
-----------------------------------------------------------		---------------------------------------------------------------------------------------------- 
-----------------------------------------------------------		---------------------------------------------------------------------------------------------- 
 
-----------------------------------------------------------		---------------------------------------------------------------------------------------------- 
-----------------------------------------------------------		---------------------------------------------------------------------------------------------- 
----------------------------------------------------------- 4x	        ---------------------------------------------------------------------------------------------- 
---------8----------7---------10---------8-----------------		---------------------------------------------------------------------------------------------- 
---------6----------5----------8---------6-----------------	        -------------3-----------3-----------3-------------3---4---3--------------3--------------3---- 
--0--0-------0--0--------0--0------0--0--------------------		-----0---0-------0---0------0---0--------0---0-------------------0---0---------0---0---------- 
  X  X       X  X        X  X      X  X			                     X   X       X   X      X   X        X   X                   X   X         X   X 
 
-------------------------	----------------------------------------------------------------- 
-------------------------	----------------------------------------------------------------- 
-------------------------	----------------------------------------------------------------- 
-------------------------	-----0---3---0---3---0---3---0---3---4---3---0---3---0---3------- 
--12/5-------------------	-----0---3---0---3---0---3---0---3---4---3---0---3---0---3------- 
--12/5-------------------	-----0---3---0---3---0---3---0---3---4---3---0---3---0---3------- 
			             X   X   X   X   X   X   X   X   X   X   X   X   X   X 
 
 
------------------------------------------------------------------------------------------------------------------------- 
------------------------------------------------------------------------------------------------------------------------- 
------------------------------------------------------------------------------------------------------------------------- 
------------------------------------------------------------------------------------------------------------------------- 
--6--6--6--6--6--6--6--6--6--6--8--8--8--8--8--8--8--8--8--8--6--6--6--6--6--6--6--6--6--6--8--8--8--8--8--8--8--8------- 
--6--6--6--6--6--6--6--6--6--6--8--8--8--8--8--8--8--8--8--8--6--6--6--6--6--6--6--6--6--6--8--8--8--8--8--8--8--8------- 
  X  X  X  X  X  X  X  X  X  X  X  X  X  X  X  X  X  X  X  X  X  X  X  X  X  X  X  X  X  X  X  X  X  X  X  X  X  X 
 
----------------------------------------- 
----------------------------------------- 
----------------------------------------- 
-----3-------------------6--------------- 
-----3-------------------6--------------- 
-----3-------------------6--------------- 
 
Solo  ? galera, depois eu passo o solo dessa musica  
 
 
Riff junto com o solo  
------------------------------------------------------------------------ 
------------------------------------------------------------------------ 
------------------------------------------------------------------------ 4x 
---0--0--0--13--12--0--0--0--15--13--0--0--0--15--13--12--13------------ 
---0--0--0--13--12--0--0--0--15--13--0--0--0--15--13--12--13------------ 
---0--0--0--13--12--0--0--0--15--13--0--0--0--15--13--12--13------------ 
   X  X  X          X  X  X          X  X  X   
 
This what I see through my eyes  
Black is the colour of your sunrise  
 
---------------- 
---------------- 
---------------- 
------13~~------ 
------13~~------ 
------13~~------ 
 
This is what I can see through my eyes  
This is the colour of your sunshine. 
 
-------------------------------------------------------------------------------------------------- 
-------------------------------------------------------------------------------------------------- 
-------------------------------------------------------------------------------------------------- 
----13--13--13--13--13--13--13--13-----0--0--0--0----13--13--13--13--13----- 
----13--13--13--13--13--13--13--13-----0--0--0--0----13--13--13--13--13----- 
----13--13--13--13--13--13--13--13-----0--0--0--0----13--13--13--13--13----- 
     X    X    X   X    X    X    X   X		         X    X    X    X   X	 
 
Solo  ? 
 
 
Riff junto com o solo  
------------------------------------------------------------------------ 
------------------------------------------------------------------------ 
------------------------------------------------------------------------ 4x 
---0--0--0--13--12--0--0--0--15--13--0--0--0--15--13--12--13------------ 
---0--0--0--13--12--0--0--0--15--13--0--0--0--15--13--12--13------------ 
---0--0--0--13--12--0--0--0--15--13--0--0--0--15--13--12--13------------ 
   X  X  X          X  X  X          X  X  X   
 
--------------------------------------------------------------------- 
--------------------------------------------------------------------- 
------8-8-8-8--7-7-7-7-8-8-8-8-10-10-10-10-8-8-8-8-7-7-7-7-8--------- 
--------------------------------------------------------------------- 
--------------------------------------------------------------------- 
--------------------------------------------------------------------- 
 
--------------------------------------------------------------------- 
--------------------------------------------------------------------- 
--------------------------------------------------------------------- 
---------------------6-6----6-6----6-6------------------------------- 
---------------------6-6----6-6----6-6------------------------------- 
---------------------6-6----6-6----6-6------------------------------- 

		  

See also:

tabs Bullet for my Valentine - Tears dont fall tabs Bullet for my Valentine - Army Of Noise tabs Bullet for my Valentine - Room 409 tabs Bullet for my Valentine - Dirty Little Secret tabs Bullet for my Valentine - Alone tabs Bullet for my Valentine - Tears Don't Fall (Acoustic)
e-chords

Other versions:

tabs Bullet for my Valentine - Just Another Star
auto scroll beats size up size down change color hide chords drawings
tab show chords e-chords YouTube Clip e-chords hide all tabs e-chords go to top tab

share