Bullet for my Valentine

Things I Hate (revolve Around Me)

Bullet for my Valentine

tabs Easy easy

by  INDESTRUCTIBLE

save to print version add songbook text version e-mail correct tuner
chordsukulelecavacokeyboardtabbassdrumsharmonicaflute Guitar Pro
close

there isn't a video lesson for this song

chords

Things I Hate (revolve Around Me)

	  		    Intro 
E-3-3-3-3-0-0-0-0-3-3-3-3-3-| 
B-0-0-0-0-2-2-2-2-0-0-0-0-0-| 
G-0-0-0-0-3-3-3-3-0-0-0-0-0-| 
D-0-0-0-0-4-4-4-4-0-0-0-0-0-| 
A-2-2-2-2-0-0-0-0-2-2-2-2-2-| 
E-3-3-3-3---------3-3-3-3-3-| 

    Verse 
E-0-0-0-0---------0-0-0-0---------| 
B-2-2-2-2---------2-2-2-2---------| 
G-3-3-3-3-----3-5-3-3-3-3-----3-5-| 
D-0-0-0-0-3-5-----0-0-0-0-3-5-----| 
A---------------------------------| 
E---------------------------------| 

    Bridge 
E---------------------| 
B---------------------| 
G---------------------| 
D-4-4-4-------3-3-3-3-| 
A-2-2-2-5-5-5-1-1-1-1-| 
E-------3-3-3---------| 

    Chorus 
E-----------------------3-5-----------------------------| 
B-------------------3-5-------------------3-5-----------| 
G---------------3-5-------------------3-5---------------| 
D-2-2-2-----3-5-------------2-2-2-3-5---------2-2-2-2-2-| 
A-2-2-2-3-5-----------------2-2-2-------------2-2-2-2-2-| 
E-0-0-0---------------------0-0-0-------------0-0-0-0-2-| 
		  

See also:

tabs Bullet for my Valentine - Tears dont fall tabs Bullet for my Valentine - Army Of Noise tabs Bullet for my Valentine - Room 409 tabs Bullet for my Valentine - Dirty Little Secret tabs Bullet for my Valentine - Alone tabs Bullet for my Valentine - Tears Don't Fall (Acoustic)
e-chords

Other versions:

tabs Bullet for my Valentine - Things I Hate (revolve Around Me)
auto scroll beats size up size down change color hide chords drawings
tab show chords e-chords YouTube Clip e-chords hide all tabs e-chords go to top tab

share