Bullet for my Valentine

Say Goodnight

Bullet for my Valentine

tabs Expert expert

by  ROBEPOIEL

save to print version add songbook text version e-mail correct tuner
chordsukulelecavacokeyboardtabbassdrumsharmonicaflute Guitar Pro
close

there isn't a video lesson for this song

chords

Say Goodnight

	  		e|-------------------------------------------------------------------------------| 
B|-------------------------------------------------------------------------------| 
G|---------------------5---------------------------------------------------------| 
D|-5/7---5-7-8-7-5---------------5---------------------------------7-8-5-7---5---| 
A|-----------------8-7---8---7-8---8-7-8-7-3-3/5---3-5-7-5-7-8-7-8---------8---7-| 
E|-------------------------------------------------------------------------------| 

e|-13p12----------13p12----------13p12-------16b-13-12-13-12/1312----| 
B|-------13-------------13-------------13--------------------------13-| 
G|----------14-------------14-------------14--------------------------| 
D|-------------15-------------12--------------------------------------| 
A|--------------------------------------------------------------------| 
E|--------------------------------------------------------------------| 

e|-13p12----------13p12----------13p12-------16b-13-12-13-15-13-12-12/1312-10-| 
B|-------13-------------13-------------13--------------------------------------| 
G|----------14-------------14-------------14-----------------------------------| 
D|-------------15-------------12-----------------------------------------------| 
A|-----------------------------------------------------------------------------| 
E|-----------------------------------------------------------------------------| 
		  

See also:

tabs Bullet for my Valentine - Things I Hate (revolve Around Me) tabs Bullet for my Valentine - No control tabs Bullet for my Valentine - Riot tabs Bullet for my Valentine - Livin' Life (on The Edge Of A Knife) tabs Bullet for my Valentine - Just Another Star tabs Bullet for my Valentine - Tears Dont Fall Acoustic
e-chords

Other versions:

tabs Bullet for my Valentine - Say Goodnight tabs The Dirty Shame - Say Goodnight Crazy Lady
auto scroll beats size up size down change color hide chords drawings
tab show chords e-chords YouTube Clip e-chords hide all tabs e-chords go to top tab

share