Buckethead

Materializing The Disembodied

Buckethead

tabs

by  DEIVCAVALCANTI

save to print version add songbook text version e-mail correct tuner
chordsukulelecavacokeyboardtabbassdrumsharmonicaflute Guitar Pro
close

there isn't a video lesson for this song

chords

Materializing The Disembodied

	  		

Intro - (0:00-0:10) 
eb|--------------------------------------------------------| 
Bb|--------------------------------------------------------| 
Gb|--------------------------------------------------------| 
Db|-4------------4-----------------------3-----------9-----| 
Ab|-4------------4-----------------------3-----------9-----| 
Db|-4------------4-----------------------3-----------9-----| 
Play The Intro Twice 

Part  A  - (0:10 - 0:30)                       1-3,5-7   4 + 8----| 
eb|-----------------------------------------|---------|---------| 
Bb|-----------------------------------------|---------|---------| 
Gb|-----------------------------------------|--8-7-8--|---------| 
Db|-----------------------------------------|--8-7-8--|---5-----| 
Ab|-5---------------------------------------|--6-5-6--|---5-----| 
Db|-5-7--7--7-7-7-7-7-7-7-7-7-7-7-7-7-7-7-7-|---------|---5-----| 
Play Part A Eight Times 

Part  B  (0:31 - 0:34) 
eb|----------------------------------------| 
Bb|----------------------------------------| 
Gb|-------------------------------9--8-----| 
Db|-4--------7--6-------3---------9--8-----| 
Ab|-4--------7--6-------3---------7--6-----| 
Db|-4--------7--6-------3------------------| 
Play Part  B  Once 

Part  C  - (0:35 - 0:55) 
eb|-----------------------------------------------------------------------------| 
Bb|---------8-------------8--------------8--------------8----------8------8-----| 
Gb|-11---------------------------11----------------------------11---------------| 
Db|----------------10---------------------------10--------------------10--------| 
Ab|-----------------------------------------------------------------------------| 
Db|-----------------------------------------------------------------------------| 
Play Part  C  Eight Times 

Part  A  - (0:55 - 1:05)                         1+3          2         4 
eb|-----------------------------------------|---------|-------------|--5--| 
Bb|-----------------------------------------|---------|-------------|--5--| 
Gb|-----------------------------------------|--8-7-8--|-------------|--5--| 
Db|-----------------------------------------|--8-7-8--|---7-----8--5|--5--| 
Ab|-5---------------------------------------|--6-5-6--|---7-----8--5|--5--| 
Db|-5-7--7--7-7-7-7-7-7-7-7-7-7-7-7-7-7-7-7-|---------|---7-----8--5|--5--| 
Play Part A Four Times 

Part  D  - (1:06 - 1:31)                                               1-4-------| 
eb|---------------------------------------------------------------|------------| 
Bb|-----15--18--17------------------------------------------------|------------| 
Gb|-14--------------14--17--17------12--17----------12------------|------------| 
Db|-----------------------------15----------14--15------10--12----|------------| 
Ab|---------------------------------------------------------------|--10--12----| 
Db|---------------------------------------------------------------|------------| 

Part  D  5th Ending - (1:37-1:40) 
eb|----------------------------------------------------------------| 
Bb|----------------------------------------------------------------| 
Gb|-7-----------------5----5----------7----------------------------| 
Db|-7-----------------5----5----------7-----------------8----8-----| 
Ab|-5-----------------3----3----------5-----------------8----8-----| 
Db|-----------------------------------------------------8----8-----| 
Play Part  D  Five Times 

Part  E  - (1:41 - 2:04) 
eb|-------------------------------------------------------------------| 
Bb|-------------------------------------------------------------------| 
Gb|-------------------------------------------------------------------| 
Db|-7-7-7---7--7--7--7------5--5---7--7------7-7-7--7--7--7-----7-----| 
Ab|-5-5-5---5--5--5--5------3--3---5--5------5-5-5--5--5-----5--------| 
Db|-------------------------------------------------------------------| 

Part E (Continued)    End On 
eb|-------------------|-------| 
Bb|-------------------|-------| 
Gb|-------------------|---7---| 
Db|-3-3-3-7p5p3-5p3p2-|---7---| 
Ab|-------------------|---5---| 
Db|-------------------|-------| 
Play Part E 4 Times Then End 
 
		  

See also:

tabs Shiny Toy Guns - When Did This Storm Begin tabs Celldweller - The Wings Of Icarus tabs Peaches - Sucker tabs Buckethead - Four Rivers tabs Shiny Toy Guns - Ricoche tabs To Mars and Back Again - Follow the yellow brick road
e-chords

Other versions:

tabs Buckethead - Materializing The Disembodied
auto scroll beats size up size down change color hide chords drawings
tab show chords e-chords YouTube Clip e-chords hide all tabs e-chords go to top tab

share