Buck Owens and Don Finch

Happy Go Lucky Guitar

Buck Owens and Don Finch

tabs Beginner beginner

save to print version add songbook text version e-mail correct tuner
chordsukulelecavacokeyboardtabbassdrumsharmonicaflute Guitar Pro
close

there isn't a video lesson for this song

chords

Happy Go Lucky Guitar

	  		Transcribed by C Van Etten  10/01/06 


To match recording tune guitar down 1/2 step 


E------------------------------------------------------------ 
B------------------------------------------------------------ 
G-----------------------4------------------------------------ 
D-----------2---4---4/6---4b6r4-2-------2---4-2-------------- 
A---2---4-------------------------0-2h4---0-----4-2----0-1-2- 
E-0---0---0---0---0----------------------------------4------- 


E-------------------------------------2-------2-------------- 
B---------------------------------------0-2b4---2b4r2-0------ 
G-----------------4-------------1-2-3------------------------ 
D-----2---4---4/6-----4b6r4-2-4------------------------------ 
A-4-------------------------------------------------------2-4 
E---0---0---0-------0-----------------------------------0---- 

E------------------------------------------------------------ 
B------------------------------------------------------------ 
G-------------4-----------------------1---------------------- 
D---2-4---4/6-----5-4-2-------2---2-4--------------2-5/6-5-6- 
A-----------------------0-2h4---4--------4-3-4-3-4----------- 
E-0-----0-------0-------------------------------------------- 


E------------------------------------------------------------ 
B-----------------------------------------------------------2 
G-----6-----------------------------2-------------------1-4-- 
D-5-6---5\4-2---2-4-2-------------------5---4---2-2-4-2------ 
A-------------4-------------0-4-2-4---4---4---4-------------- 
E---------------------0-2-4---------------------------------- 

E-----------------------------------------2-------2---------- 
B-3-----------------------------------------0-2b4---2b4r2-0-- 
G-----------------2-----------------1-2-3-------------------- 
D---------------------5---4---2-3-4-------------------------- 
A---------0-4-2-4---4---4---4-------------------------------- 
E---0-2-4---------------------------------------------------0 


E------------------------------------------------------------ 
B------------------------------------------------------------ 
G-------------------4-----------------------1---------------- 
D---------2---4-4/6---4b6-4-2-------2---2-4-------------2-6-5 
A-2---4-----------------------0-2h4---4-------4-3-4-3-4------ 
E---0---0---0------------------------------------------------ 



E------------------------- 
B------------------------- 
G-------6----------------- 
D-6-5-6-----5\4-2---2-4-2- 
A---------4-------4------- 
E------------------------- 

Slide Solo (Standard Tuning) 

E-----------------------7-0---------6\5-3/4---------------- 
B---------------5-7-7/9-----8\7-5-0---------5-------5-0-2-0 
G-1-2-3-4---6---------------------------------7-6-4-------- 
D---------6---6-------------------------------------------- 
A---------------------------------------------------------- 
E---------------------------------------------------------- 


E---------------------------7-0-------------------14------- 
B---------------5---7-5-7/9-----8\7-0----------------15-12- 
G-1-2-3-4---6-------------------------11-13-14-15---------- 
D---------6---6---6---------------------------------------- 
A---------------------------------------------------------- 
E---------------------------------------------------------- 


E----------------12\10------------------------------------- 
B-14-12-12-14-12-------12-14-------12-14----12------------- 
G----------------------------11/13-------13----13-12\11-9-- 
D---------------------------------------------------------- 
A---------------------------------------------------------- 
E---------------------------------------------------------- 


E--------------------------------------------------------12 
B--------------------------------------12/14-13-14-13-14--- 
G----------9----9-11-11/13----13-12-13--------------------- 
D-10/11-11---11------------13------------------------------ 
A---------------------------------------------------------- 
E---------------------------------------------------------- 


E-------------9------------------- 
B-8/9-8-9-8-9---7/8-7-5---5-5-5--- 
G-----------------------6-------7- 
D---------------------------7-6--- 
A--------------------------------- 
E--------------------------------- 

Electric Solo 

E-------------5---3-----2---0---------7-9-10---------------5 
B---------------0---1/2---2-------7-9--------------------2-- 
G-----1-2-4-2-----------------7/9----------------1-2-4-2---- 
D-2-4----------------------------------------2-4------------ 
A----------------------------------------------------------- 
E----------------------------------------------------------- 


E---3-----2---0-------------14-----------14----------------- 
B-0---1/2---2------------------12-14bh16----16r14-12-------- 
G---------------11-13-14-15--------------------------------- 
D----------------------------------------------------------- 
A----------------------------------------------------2---4-- 
E------------------------------------------------------0---0 


E----------------------------------------------------------- 
B----------------------------------------------------------- 
G-------------4-------------------------1------------------- 
D-2---4---4/6-----4b6-4-2-------2---2-4-------------2-6-5-6- 
A-------------------------0-2h4---4-------4-3-4-3-4--------- 
E---0---0-------0------------------------------------------- 


E----------------------------------------------------------2 
B--------------------------------------------------2-------- 
G-----6----------------------------------------1-4---1-2-3-- 
D-5-6-----5\4-2---2-4-2------------2---5\4-2---------------- 
A-------4-------4--------------2h4---4-------4-------------- 
E------------------------0-2-4------------------------------ 

E---0-2-0-0------------------------------------------------- 
B-------0-0------------------------------------------------- 
G-2-----1-1------------------------------------------------- 
D----------------------------------------------------------- 
A----------------------------------------------------------- 
E----------------------------------------------------------- 




		  

Full key step upFull key step up
Half key step upHalf key step up
Half key step downHalf key step down
Full key step downFull key step down
hide glossary

See also:

tabs James Taylor - Youve Got A Friend (ver. 2) tabs Garth Brooks - If Tomorrow Never Comes.(ver.2) tabs Lester Flatt - Dueling Banjos tabs Jimmy Buffett - A Pirate Looks At Forty Solo (correct) tabs Randy Travis - 3 Wooden Crosses tabs Theme Songs - Mario Bros.
e-chords

Other versions:

tabs Buck Owens and Don Finch - Happy Go Lucky Guitar
auto scroll beats size up size down change color hide chords drawings
tab show chords e-chords YouTube Clip e-chords hide all tabs e-chords go to top tab

share