Blind Guardian

Theatre of Pain

Blind Guardian

tabs Beginner beginner

save to print version add songbook text version e-mail correct tuner
chordsukulelecavacokeyboardtabbassdrumsharmonicaflute Guitar Pro
close

there isn't a video lesson for this song

chords

Theatre of Pain

Year: 1992 - Album: Somewhere Far Beyond

	  		Tuning: Standard (E A D G B E) 
 
 
 
hello..here you got the hole one... 
 
 
  4x	      2x  
|---|-----------|----------------------------------------------------------| 
|---|-----------|----------------------------------------------------------| 
|---|-----------|-8~-----------------------------8-10-11-11--10-11-11p10p8-| 
|-3-|-3---4---3-|-----11-10-11-11p10p8---8h10-11---------------------------| 
|-1-|-1-6-2-6-1-|----------------------------------------------------------| 
|---|---4---4---|----------------------------------------------------------| 
 
|------------------------------------------------------------------------------------------------------| 
|------------------------------------------------11-9--------------------------------------------------| 
|-13-13p11p10-11-10-8-11-10---11p14-------------------11-10-8-10-8-------------------------------------| 
|-----------------------------------13-13b(15)---------------------11-10h11p10p8---8-------------------| 
|------------------------------------------------------------------------------------11--p9-9---11p9p8-| 
|------------------------------------------------------------------------------------------------------| 
 
|------------------------------------------------| 
|------------------------------------------------| 
|------------------------------------------------| 
|-13-11-10h11p10---------------13-11-10h11p10----| 
|----------------13-11-11h13------------------13-| 
|------------------------------------------------| 
 
Verse 1: 
						        
|---------------------------------------------------------| 
|---------------------------------------------------------| 
|---------------------------------------------------------| 
|---------6---------------------------------6-------------| 2X 
|-8-------4-4-4-4-4-------6---------8-------4---4-------6-| 
|-6-6-6-6---------2-2-2-2-4-4-4-4---6-6-6-6-----2-2-2-2-4-| 
 
 
Verse 2: 
 
						       2X    
|---------------------------------------------------------|----| 
|---------------------------------------------------------|----| 
|---------------------------------------------------------|----| 
|-----------------------------8-----------8-6-----------6-|-6-6| 
|-8-----------8-6-----------6-6-6-6-6-6-6-6-4-4-4-4-4-4-4-|-4-4| 
|-6-6-6-6-6-6-6-4-4-4-4-4-4-4-----------------------------|----| 
 
           
|-------------------| 
|-------------------| 
|-------------------| 
|-------4-----------|2X 
|-8--6--2--6--------| 
|-6--4-----4--------| 
 
Corus 1: 
           
|-----------| 
|-----------| 
|-----------| 
|-3-3-------|4X 
|-1-1---6-6-| 
|-------4-4-| 
 
Verse 3: 
 
                      2X 
|------------------------| 
|------------------------| 
|------------------------| 
|---------6-6--6-6-6-8-8-| 
|-6/8-8\--4-4--4-4-4-6-6-| 
|-4/6-6\-----------------| 
 
          4X 
|------------|--------------------|---------------------|--------------------| 
|------------|--------------------|---------------------|--------------------| 
|------------|----10-8------------|---------------------|----10-8------------| 
|-1----------|-8--------10-8--10~-|-8--11-10------------|-8--------10-8--10~-| 
|-3--6--4--6-|--------------------|-----------11-9--11~-|--------------------| 
|----4--2--4-|--------------------|---------------------|--------------------| 
 
|---------------------------------------------------------------------| 
|---------------------------------------------------------------------| 
|---------------------------------------------------------------------| 
|---------------------------------------------------------------------| 
|-8---------8---------8--6---------6---------6--4---------4---------4-| 
|-6-6-6-6-6-6-6-6-6-6-6--4-4-4-4-4-4-4-4-4-4-4--2-2-2-2-2-2-2-2-2-2-2-| 
PM  .......   .......      .......   .......      .......   ....... 
**************************************** 
Solo: 
**************************************** 
|---------------------------|-------13bfr-14bfr-15bfr-|-18-18-18-18-18-18-18-18-18-16bfr~-|(maybe a bit 
|-16bf\---16bf-14bf\---16bf-|-16bfr-------------------|-----------------------------------| more 18's.) 
|---------------------------|-------------------------|-----------------------------------| 
|---------------------------|-------------------------|-----------------------------------| 
|---------------------------|-------------------------|-----------------------------------| 
|---------------------------|-------------------------|-----------------------------------| 
 
|-----------------------------------------------------------------------------| 
|-----------14-13-------------------16------------16bfr-p14h16-14h16p14p13h14-| 
|-11--15-13-------15-13---15--18-17----18-17-15-------------------------------| 
|-----------------------------------------------------------------------------| 
|-----------------------------------------------------------------------------| 
|-----------------------------------------------------------------------------| 
 
|-16-13-16bfr-p13h16--13------------------------------------------------------------| 
|------------------------16-16bfr-p14p13h14-----------------------------------------| 
|--------------------------------------------15-13-15-13----13----------------------| 
|--------------------------------------------------------15----15-13-11-13----------| 
|--------------------------------------------------------------------------13\11-11-| 
|-----------------------------------------------------------------------------------| 
 
|-------------------------------------------------------------------------------13\-| 
|-------------------------------------------------------------14-13-14-16-14-16-----| 
|-------------------------------------13\---15-13-15-17-15-17-----------------------| 
|-------------------11-10-11-13-11-13-----------------------------------------------| 
|-13-11-13-15-13-15-----------------------------------------------------------------| 
|-----------------------------------------------------------------------------------| 
 
|-13-11-13--11----------------------13-11-13--11----------------------14-13-14-13h14p13p11----------11------| 
|--------------13-11--13b(14)r-11----------------13----------------------------------------13-14-13----9-11-| 
|---------------------------------------------------11--13b(15)r-11-----------------------------------------| 
|-----------------------------------------------------------------------------------------------------------| 
|-----------------------------------------------------------------------------------------------------------| 
|-----------------------------------------------------------------------------------------------------------| 
 
Guitar 1 
|---------------------------------------------------9~-| 
|-------------------------------------------11p9h11----| 
|-------------------------6~-------6p5-10p8------------| 
|-------------------8p6h8------8p6---------------------| 
|-------4p3h4-8p6h8------------------------------------| 
|-6p4h6------------------------------------------------| 
 
Guitar 2 
|--------------------------------| 
|-----------9bfr-9---------------| 
|-8-10-11~---------11---13p11p10-| 
|--------------------------------| 
|--------------------------------| 
|--------------------------------| 
 
Verse 4: 
----------------------------------------------------------- 
Like Verse 2 
----------------------------------------------------------- 
 
Corus 2: 
          4X 
|-----------| 
|-----------| 
|-----------| 
|-3-3-------| 
|-1-1---6-6-| 
|-------4-4-| 
 
|-------------------------------------------------|-----------------------------------------20p18~-| 
|----------------------------------------------16-|-------------------16-14-16-18-16-18-19~--------| 
|-------------------15-13-15-17-15-17-18-17-18----|-15-13-15-18-17-18------------------------------| 
|-16-15-16-18-16-18-------------------------------|------------------------------------------------| 
|-------------------------------------------------|------------------------------------------------| 
|-------------------------------------------------|------------------------------------------------| 
 
Outro: 
 
|-13h16p13~-|----------------|--------------------------| 
|-----------|----------------|-9bf-(11)-(11)-(11)-r(9)~-| 
|-----------|----------------|--------------------------| 
|-----------|-10--8--6--5--8-|--------------------------| 
|-----------|-8---6--4--3--6-|--------------------------| 
|-----------|----------------|--------------------------| 
 
 
_______________________________________________________ 
Contribuição: Thiago H. Ruotolo([email protected]) 

		  

Full key step upFull key step up
Half key step upHalf key step up
Half key step downHalf key step down
Full key step downFull key step down
hide glossary

See also:

tabs Scorpions - Humanity tabs Helloween - I Want Out tabs Scorpions - Rock You Like a Hurricane (ver. 3) tabs Helloween - A Little Time tabs Scorpions - Send Me An Angel tabs Scorpions - When You Cme Into My Life
e-chords

Other versions:

tabs Blind Guardian - Theatre of Pain
auto scroll beats size up size down change color hide chords drawings
tab show chords e-chords YouTube Clip e-chords hide all tabs e-chords go to top tab

share