Blake Mills

If I'm Unworthy

Blake Mills

tabs

by  ROBEPOIEL

save to print version add songbook text version e-mail correct tuner
chordsukulelecavacokeyboardtabbassdrumsharmonicaflute Guitar Pro
close

there isn't a video lesson for this song

chords

If I'm Unworthy

	  		
Intro 

Db||--0-0-0-0-0-0-0-0-0-0-0-0--0-0-0-0-|-0-0-0-0-0-0-0-0-0-0-0-0-0-0-0-0---|| 
Ab||--0-0-0-0-0-0-0-0-0-0-0-0--0-0-0-0-|-0-0-0-0-0-0-0-0-0-0-0-0-0-0-0-0---|| 
F ||-----------------------------------|-----------------------------------|| 
Db||-----------------------------------|-0---------------------------------|| x2 
Ab||------------------0----------------|-----------------------------0-----|| 
Db||--0---------2/4-----------/9-------|-------------9---7-------2/4-------|| 


Verse 

Db|--0-0-0-0-0-0-0-0-0-0-0-0--0-0-0-0-|-0-0-0-0-0-0-0-0-0-0-0-0-0-0-0-0--| 
Ab|--0-0-0-0-0-0-0-0-0-0-0-0--0-0-0-0-|-0-0-0-0-0-0-0-0-0-0-0-0-0-0-0-0--| 
F |-----------------------------------|----------------------------------| 
Db|-----------------------------------|-0--------------------------------| 
Ab|------------------0----------------|-----------------------------0----| 
Db|--0---------2/4-----------/9-------|-------------9---7-------2/4------| 


Db|-7-7-7-7-7-7--7-7-7-7-7-7-7-7-7-7-|-7-7-7-7-7-7--7-7-7-7-7-7-9--9-9----| 
Ab|-7-7-7-7-7-7--7-7-7-7-7-7-7-7-7-7-|-7-7-7-7-7-7--7-7-7-7-7-7-9-10-9----| 
F |----------------------------------|--------------------------9--9-9----| 
Db|----------------------------------|-7------------------------9---------| 
Ab|------------------7-------9-------|-------------10---9-----------------| 
Db|-7-----------11-------------------|------------------------------------| 


Db|-5-5-5-5-5-5-5-5-5-5-5-5-5-5-5-5-|-5-5-5-5-5-5-5-5---5-5-5-5---5-5-5-5-| 
Ab|-5-5-5-5-5-5-5-5-5-5-5-5-5-5-5-5-|-5-5-5-5-5-5-5-5---5-5-5-5---5-5-5-5-| 
F |---------------------------------|-------------------------------------| 
Db|---------------------------------|-------------------------------------| 
Ab|-----------------5-----------5---|-----------------7h9-------7h9-------| 
Db|-5-----------9-----------9-------|-5-----------9-----------------------| 


Db|-0-0-0-0-0-0-0-0-0-0-0-0---------|-----------------------------------| 
Ab|-2-2-2-2-2-2-2-2-2-2-2-2-5-5-5-5-|-5-5-5-5-5-5-5-5-5-5-5-5-5-5-5-5---| 
F |-------------------------5-5-5-5-|-5-5-5-5-5-5-5-5-5-5-5-5-5-5-5-5---| 
Db|---------------------------------|-----------------------------------| 
Ab|-2-------------------------------|-----------------------------------| 
Db|-----------------2-------4-------|-5---------------6-----------------| 


Chorus 

Db|--------------0-0-0-0-0-0-0-0-0-0-|-0-0-0-0-0-0-0-0-0-0-0-0-0-0-0-0---| 
Ab|-5-5-5-5-5-5--0-0-0-0-0-0-0-0-0-0-|-2-2-2-2-2-2-2-2-1-1-1-1-1-1-1-1---| 
F |-5-5-5-5-5-5----------------------|-----------------------------------| 
Db|----------------------------------|-----------------------------------| 
Ab|------------------2---------------|-----------------------------------| 
Db|-7-----------/4-----------4-------|-2---------------3-----------------| 


Db|-0-0-0-0-0-0-0-0-0-0-0-0-0-0-0-0-|-0-0-0-0-0-0-0-0-0-0-0-0-0-0-0-0----| 
Ab|-0-0-0-0-0-0-0-0-1-1-1-1-1-1-1-1-|-2-2-2-2-2-2-2-2-1-1-1-1-1-1-1-1----| 
F |---------------------------------|------------------------------------| 
Db|---------------------------------|------------------------------------| 
Ab|---------------------------------|------------------------------------| 
Db|-4---------------3---------------|-2---------------3------------------| 


Solo Based on the Fretboard Journal Live performance seen here: http://www.youtube.com/watch?v=qLqdl-UPKB8 

Db|-0-0-0-0-0-0-0-0-0-0-0-0-0-0-0-0-|-0-0-0-0-0-3-2-0---3-2-0--3-2----| 
Ab|-0-0-0-0-0-0-0-0-1-1-1-1-1-1-1-1-|-2-2-2-2-2-2-2-2---1-1-1--1-1----| 
F |---------------------------------|---------------------------------| 
Db|---------------------------------|---------------------------------| 
Ab|---------------------------------|---------------------------------| 
Db|-4---------------3---------------|-2---------------3---------------| 


Db|-0-0-0-0-0-0-0-0-0-0-0-0--0-0-0-0-|-0-0-0-0-0-0-0-0-0-0-0-0-0-0-0-0---| 
Ab|-0-0-0-0-0-0-0-0-0-0-0-0--0-0-0-0-|-0-0-0-0-0-0-0-0-0-0-0-0-0-0-0-0---| 
F |----------------------------------|-----------------------------------| 
Db|----------------------------------|-0---------------------------------| 
Ab|-----------------0----------------|-----------------------------0-----| 
Db|-0---------2/4-----------/9-------|-0-----------9---7-------2/4-------| 


Db|-7-7-7-7-7-7--7-7-7-7-7-7-7-7-7-7-|-7-7-7-7-7-7--7-7-7-7-7-7-9--9-9-----| 
Ab|-7-7-7-7-7-7--7-7-7-7-7-7-7-7-7-7-|-7-7-7-7-7-7--7-7-7-7-7-7-9-10-9-----| 
F |--------------7---7-------7-------|-7---7--------------------9--9-9-----| 
Db|----------------------------------|-7------------------------9------9---| 
Ab|------------------7-------9-------|-------------10---9------------------| 
Db|-5/7---------11-------------------|-------------------------------------| 


Db|-5-5-5-5-5-5---5-5-5-5---5-5-5--5--5--|-5-5-5-5-5-5-5-5---5-5-5-5-5-5-5----5--| 
Ab|-5-5-5-5-5-5---5-5-5-5---5-5-5--5--5--|-5-5-5-5-5-5-5-5---5-5-5-5-5-5-5----5--| 
F |--------------------------------------|---------------------------------------| 
Db|---------------------9p7p5---5--------|---------------------------------------| 
Ab|-7---5-----9p7p5---5-------7-------5--|-----------------7h9---7---5-----------| 
Db|-----------------9--------------9-----|-5-----------9-----------------9b11r===| 


Db|-0-0-0-0-0-0-0-0-0-0-0-0---------|-------------------------------------| 
Ab|-2-2-2-2-2-2-2-2-2-2-2-2---5-5-5-|-5-5-5-5-5-5-5-5-5-5-5-5-7b8r7-5-5---| 
F |---2-----------------2-----5-5-5-|-5-5-5-5-5-5-5-5-5-5-5-5-5---5-5-5---| 
Db|---0-----------------0-----------|---------5-5---5-----5---------------| 
Ab|-2-------------------------------|-------------------------------------| 
Db|-------------0-2-2-------4-------|-5---------------6-------6-----------| 


Db|--------9-8-7----------0-0-0-0-|-0---0-0---0-0-0-----------------------| 
Ab|--------------9--------0-0-0-0-|-2---2-2---2-2-2--------------8-10-11--| 
F |-8--8-----------8--------------|----------------------8-10-11----------| 
Db|-9--9-----------9--------------|-----------------8-10------------------| 
Ab|-------------------------------|---------------------------------------| 
Db|-7----7-----------/9---2---4---|---2-----2-------8---------8-----------| 


Db|--0--0--0--0--0--0--0--0--0--0--0--0--0--0--0--0-| 
Ab|-12-12-12-12-12-12-12-12-11-11-11-11-11-11-11-11-| 
F |-------------------------------------------------| 
Db|-------------------------------------------------| 
Ab|-------------------------------------------------| 
Db|--0-----------0-----------8-----------8----------| 


Db|--0--0--0--0--0--0--0--0--0-0-0-0--0-0--0-0---| 
Ab|-10-10-10-10-10-10-10-10--8-8-8-8--8-8--8-8---| 
F |----------------------------------------------| 
Db|----------------------------------------------| 
Ab|----------------------------------------------| 
Db|--9-----------9----------11-------11---11-----| 


Verse 

Db|--0-0-0-0-0-0-0-0-0-0-0-0--0-0-0-0-|-0-0-0-0-0-0-0-0-0-0-0-0-0-0-0-0--| 
Ab|--0-0-0-0-0-0-0-0-0-0-0-0--0-0-0-0-|-0-0-0-0-0-0-0-0-0-0-0-0-0-0-0-0--| 
F |-----------------------------------|----------------------------------| 
Db|-----------------------------------|-0--------------------------------| 
Ab|------------------0----------------|-----------------------------0----| 
Db|--0---------2/4-----------/9-------|-------------9---7-------2/4------| 


Db|-7-7-7-7-7-7--7-7-7-7-7-7-7-7-7-7-|-7-7-7-7-7-7--7-7-7-7-7-7-9--9-9----| 
Ab|-7-7-7-7-7-7--7-7-7-7-7-7-7-7-7-7-|-7-7-7-7-7-7--7-7-7-7-7-7-9-10-9----| 
F |----------------------------------|--------------------------9--9-9----| 
Db|----------------------------------|-7------------------------9---------| 
Ab|------------------7-------9-------|-------------10---9-----------------| 
Db|-7-----------11-------------------|------------------------------------| 


Db|-5-5-5-5-5-5-5-5-5-5-5-5-5-5-5-5-|-5-5-5-5-5-5-5-5---5-5-5-5---5-5-5-5-| 
Ab|-5-5-5-5-5-5-5-5-5-5-5-5-5-5-5-5-|-5-5-5-5-5-5-5-5---5-5-5-5---5-5-5-5-| 
F |---------------------------------|-------------------------------------| 
Db|---------------------------------|-------------------------------------| 
Ab|-----------------5-----------5---|-----------------7h9-------7h9-------| 
Db|-5-----------9-----------9-------|-5-----------9-----------------------| 


Db|-0-0-0-0-0-0-0-0-0-0-0-0---------|-----------------------------------| 
Ab|-2-2-2-2-2-2-2-2-2-2-2-2-5-5-5-5-|-5-5-5-5-5-5-5-5-5-5-5-5-5-5-5-5---| 
F |-------------------------5-5-5-5-|-5-5-5-5-5-5-5-5-5-5-5-5-5-5-5-5---| 
Db|---------------------------------|-----------------------------------| 
Ab|-2-------------------------------|-----------------------------------| 
Db|-----------------2-------4-------|-5---------------6-----------------| 


Chorus 

Db|--------------0-0-0-0-0-0-0-0-0-0-|-0-0-0-0-0-0-0-0-0-0-0-0-0-0-0-0---| 
Ab|-5-5-5-5-5-5--0-0-0-0-0-0-0-0-0-0-|-2-2-2-2-2-2-2-2-1-1-1-1-1-1-1-1---| 
F |-5-5-5-5-5-5----------------------|-----------------------------------| 
Db|----------------------------------|-----------------------------------| 
Ab|------------------2---------------|-----------------------------------| 
Db|-7-----------/4-----------4-------|-2---------------3-----------------| 


Db|-0-0-0-0-0-0-0-0-0-0-0-0-0-0-0-0-|-0-0-0-0-0-0-0-0-0-0-0-0-0-0-0-0----| 
Ab|-0-0-0-0-0-0-0-0-1-1-1-1-1-1-1-1-|-2-2-2-2-2-2-2-2-1-1-1-1-1-1-1-1----| 
F |---------------------------------|------------------------------------| 
Db|---------------------------------|------------------------------------| 
Ab|---------------------------------|------------------------------------| 
Db|-4---------------3---------------|-2---------------3------------------| 


*********************************** 

|(n)  Ghost note 
| /   Slide up 
| \   Slide down 
| h   Hummer-on 
| p   Pull-off 
| b   Bend 

*********************************** 
		  

See also:

tabs Deep Purple - Black Night tabs Deep Purple - Soldier Of Fortune tabs Deep Purple - Demon's Eye tabs Ira! - Envelheço na Cidade tabs Deep Purple - Smoke on the Water (correct) tabs Ira! - Tarde Vazia (Acústico)
e-chords

Other versions:

tabs Blake Mills - If I'm Unworthy
auto scroll beats size up size down change color hide chords drawings
tab show chords e-chords YouTube Clip e-chords hide all tabs e-chords go to top tab

share