save to print version add songbook text version e-mail correct tuner
chordsukulelecavacokeyboardtabbassdrumsharmonicaflute Guitar Pro
close

there isn't a video lesson for this song

chords

Postcard

	  		
0:00 - 0:21 

Guitar 1 

Eb|--------------------------------------------------| 
Bb|--------------------------------------------------| 
Gb|--------------------------------------------------|  x2 
Db|--------------------------------------------------| 
Ab|-----0-----0-----0-----0-----0-----0-----0-----0--| 
Eb|--1-----1----0------3-----5-----5----8------7-----| 

Eb|--------------------------------------------------| 
Bb|--------------------------------------------------| 
Gb|--------------------------------------------------| 
Db|--------------------------------------------------| 
Ab|-----0-----0-----0-----0-----0-----0-----0-----0--| 
Eb|--8-----8----7------7-----9-----9----8------8-----| 

Eb|--------------------------------------------------| 
Bb|--------------------------------------------------| 
Gb|--------------------------------------------------| 
Db|--------------------------------------------------| 
Ab|-----0-----0-----0-----0-----0-----0-----0-----0--| 
Eb|--8-----8----7------7-----5-----5----5------0-----| 


Guitar 2 

Eb|----------------------------| 
Bb|-----------10--8-----8--10--| 
Gb|--9-----9---------9---------|  x2 
Db|-----7----------------------| 
Ab|----------------------------| 
Eb|----------------------------| 



0:21 - 0:42 

Guitar 1 

Eb|--------------------------------------------------| 
Bb|--------------------------------------------------| 
Gb|--------------------------------------------------|  x2 
Db|--------------------------------------------------| 
Ab|-----0-----0-----0-----0-----0-----0-----0-----0--| 
Eb|--1-----1----0------3-----5-----5----8------7-----| 

Eb|--------------------------------------------------| 
Bb|--------------------------------------------------| 
Gb|--------------------------------------------------| 
Db|--------------------------------------------------| 
Ab|-----0-----0-----0-----0-----0-----0-----0-----0--| 
Eb|--8-----8----7------7-----9-----9----8------8-----| 

Eb|--------------------------------------------------| 
Bb|--------------------------------------------------| 
Gb|--------------------------------------------------| 
Db|--------------------------------------------------| 
Ab|-----0-----0-----0-----0-----0-----0-----0-----0--| 
Eb|--8-----8----7------7-----5-----5----5------0-----| 


Guitar 2 (Comes in at 0:31) 

Eb|----------------------------| 
Bb|-----------10--8-----8--10--| 
Gb|--9-----9---------9---------|  x4 
Db|-----7----------------------| 
Ab|----------------------------| 
Eb|----------------------------| 


0:42 - 1:12 

Guitar 1 

Eb|--------------------------------------------------| 
Bb|--------------------------------------------------| 
Gb|--------------------------------------------------|  x2 
Db|--------------------------------------------------| 
Ab|-----0-----0-----0-----0-----0-----0-----0-----0--| 
Eb|--1-----1----0------3-----5-----5----8------7-----| 

Eb|--------------------------------------------------| 
Bb|--------------------------------------------------| 
Gb|--------------------------------------------------| 
Db|--------------------------------------------------| 
Ab|-----0-----0-----0-----0-----0-----0-----0-----0--| 
Eb|--8-----8----7------7-----9-----9----8------8-----| 

Eb|--------------------------------------------------| 
Bb|--------------------------------------------------| 
Gb|--------------------------------------------------| 
Db|--------------------------------------------------| 
Ab|-----0-----0-----0-----0-----0-----0-----0-----0--| 
Eb|--8-----8----7------7-----5-----5----5------5-----| 

Eb|--------------------------------------------------| 
Bb|--------------------------------------------------| 
Gb|--------------------------------------------------| 
Db|--------------------------------------------------| 
Ab|-----0-----0-----0-----0-----0-----0-----0-----0--| 
Eb|--8-----8----7------7-----9-----9----8------8-----| 

Eb|--------------------------------------------------| 
Bb|--------------------------------------------------| 
Gb|--------------------------------------------------| 
Db|--------------------------------------------------| 
Ab|-----0-----0-----0-----0-----0-----0-----0-----0--| 
Eb|--8-----8----7------7-----5-----5----5------5-----| 


Guitar 2 (Comes in at 0:52) 

Eb|----------------------------| 
Bb|-----------10--8-----8--10--| 
Gb|--9-----9---------9---------|  x8 
Db|-----7----------------------| 
Ab|----------------------------| 
Eb|----------------------------| 


Guitar 3 (Comes in at 0:52) 

Eb|--8~---------------------------------------| 
Bb|-------8--8--8/10~---8-----------8~--------| 
Gb|------------------------9--10~--------9~---|  x2 
Db|-------------------------------------------| 
Ab|-------------------------------------------| 
Eb|-------------------------------------------| 



1:12 - 1:32 

Guitar 1 

Eb|-----------------------------------------|-----------------------------------| 
Bb|--10---10---10---8---10---10---10---8----|------------8---------------8------| 
Gb|-----9----9----9---9----9----9----9---9--|--9p7-9p7-9---9p7-9p7-9p7-9---9p7--|  x2 
Db|-----------------------------------------|-----------------------------------| 
Ab|-----------------------------------------|-----------------------------------| 
Eb|-----------------------------------------|-----------------------------------| 


Guitar 2 

Eb|-----------------------------------------------------------------------| 
Bb|-----------------------------------8-----------------------8---8-10----| 
Gb|--9-9-9-9-9-9-9-9--------------------10----10----9----9-------------9--|  x2 
Db|------------------7-7-7-7-10-10-10------10----10---10---10-------------| 
Ab|-----------------------------------------------------------------------| 
Eb|-----------------------------------------------------------------------| 



1:32 - 1:53 

Guitar 1 

Eb|---------------------------------------------------| 
Bb|---------------------------------------------------| 
Gb|---------------------------------------------------|  x2 
Db|---------------------------------------------------| 
Ab|--7--7--7--7--7--7--7--7--7--7--7--7--7---7--7--7--| 
Eb|--5--5--5--5--5--5--5--5--8--8--8--8--10--8--8--8--| 


Guitar 2 

Eb|--------------| 
Bb|--------------| 
Gb|--------9-----|  x4 
Db|-----10---10--| 
Ab|--12----------| 
Eb|--------------| 

Eb|---------------------------------------------| 
Bb|---------------------------------------------| 
Gb|--12----10p9-9----9h10-10----10p9-9----9h10--| 
Db|-----10--------10---------10--------10-------| 
Ab|---------------------------------------------| 
Eb|---------------------------------------------| 

Eb|--------------| 
Bb|--------------| 
Gb|--------9-----|  x4 
Db|-----10---10--| 
Ab|--12----------| 
Eb|--------------| 

Eb|---------------------------------------------| 
Bb|---------------------------------------------| 
Gb|--12----10p9-9----9h10-10----10p9-9----9h10--| 
Db|-----10--------10---------10--------10-------| 
Ab|---------------------------------------------| 
Eb|---------------------------------------------| 


1:53 - 2:12 

Guitar 1 

Eb|--------------------------------------------------| 
Bb|--------------------------------------------------| 
Gb|--------------------------------------------------|  x2 
Db|--------------------------------------------------| 
Ab|-----0-----0-----0-----0-----0-----0-----0-----0--| 
Eb|--1-----1----0------3-----5-----5----8------7-----| 

Eb|--------------------------------------------------| 
Bb|--------------------------------------------------| 
Gb|--------------------------------------------------| 
Db|--------------------------------------------------| 
Ab|-----0-----0-----0-----0-----0-----0-----0-----0--| 
Eb|--8-----8----7------7-----9-----9----8------8-----| 

Eb|--------------------------------------------------| 
Bb|--------------------------------------------------| 
Gb|--------------------------------------------------| 
Db|--------------------------------------------------| 
Ab|-----0-----0-----0-----0-----0-----0-----0-----0--| 
Eb|--8-----8----7------7-----5-----5----5------0-----| 


Guitar 2 (Comes in at 2:02) 

Eb|----------------------------| 
Bb|-----------10--8-----8--10--| 
Gb|--9-----9---------9---------|  x4 
Db|-----7----------------------| 
Ab|----------------------------| 
Eb|----------------------------| 


2:12 - 2:43 

Guitar 1 

Eb|--------------------------------------------------| 
Bb|--------------------------------------------------| 
Gb|--------------------------------------------------|  x2 
Db|--------------------------------------------------| 
Ab|-----0-----0-----0-----0-----0-----0-----0-----0--| 
Eb|--1-----1----0------3-----5-----5----8------7-----| 

Eb|--------------------------------------------------| 
Bb|--------------------------------------------------| 
Gb|--------------------------------------------------| 
Db|--------------------------------------------------| 
Ab|-----0-----0-----0-----0-----0-----0-----0-----0--| 
Eb|--8-----8----7------7-----9-----9----8------8-----| 

Eb|--------------------------------------------------| 
Bb|--------------------------------------------------| 
Gb|--------------------------------------------------| 
Db|--------------------------------------------------| 
Ab|-----0-----0-----0-----0-----0-----0-----0-----0--| 
Eb|--8-----8----7------7-----5-----5----5------5-----| 

Eb|--------------------------------------------------| 
Bb|--------------------------------------------------| 
Gb|--------------------------------------------------| 
Db|--------------------------------------------------| 
Ab|-----0-----0-----0-----0-----0-----0-----0-----0--| 
Eb|--8-----8----7------7-----9-----9----8------8-----| 

Eb|--------------------------------------------------| 
Bb|--------------------------------------------------| 
Gb|--------------------------------------------------| 
Db|--------------------------------------------------| 
Ab|-----0-----0-----0-----0-----0-----0-----0-----0--| 
Eb|--8-----8----7------7-----5-----5----5------5-----| 


Guitar 2 (Comes in at 2:23) 

Eb|----------------------------| 
Bb|-----------10--8-----8--10--| 
Gb|--9-----9---------9---------|  x8 
Db|-----7----------------------| 
Ab|----------------------------| 
Eb|----------------------------| 


Guitar 3 (Comes in at 2:23) 

Eb|--8~---------------------------------------| 
Bb|-------8--8--8/10~---8-----------8~--------| 
Gb|------------------------9--10~--------9~---|  x2 
Db|-------------------------------------------| 
Ab|-------------------------------------------| 
Eb|-------------------------------------------| 


2:43 - 3:23 

Guitar 1 

Eb|-----------------------------------------|-----------------------------------| 
Bb|--10---10---10---8---10---10---10---8----|------------8---------------8------| 
Gb|-----9----9----9---9----9----9----9---9--|--9p7-9p7-9---9p7-9p7-9p7-9---9p7--|  x4 
Db|-----------------------------------------|-----------------------------------| 
Ab|-----------------------------------------|-----------------------------------| 
Eb|-----------------------------------------|-----------------------------------| 


Guitar 2 

Eb|-----------------------------------------------------------------------| 
Bb|-----------------------------------8-----------------------8---8-10----| 
Gb|--9-9-9-9-9-9-9-9--------------------10----10----9----9-------------9--|  x4 
Db|------------------7-7-7-7-10-10-10------10----10---10---10-------------| 
Ab|-----------------------------------------------------------------------| 
Eb|-----------------------------------------------------------------------| 


Guitar 3 (Comes in at 3:03) 

Eb|----------------------------| 
Bb|--5~---6------8-5~---6------| 
Gb|---------5~-----------------|  x2 
Db|-----------------------5~---| 
Ab|----------------------------| 
Eb|----------------------------| 


3:23 - 4:04 

Guitar 1 

Eb|---------------------------------------------------| 
Bb|---------------------------------------------------| 
Gb|---------------------------------------------------|  x4 
Db|---------------------------------------------------| 
Ab|--7--7--7--7--7--7--7--7--7--7--7--7--7---7--7--7--| 
Eb|--5--5--5--5--5--5--5--5--8--8--8--8--10--8--8--8--| 


Guitar 2 

Eb|--------------| 
Bb|--------------| 
Gb|--------9-----|  x4 
Db|-----10---10--| 
Ab|--12----------| 
Eb|--------------| 

Eb|---------------------------------------------| 
Bb|---------------------------------------------| 
Gb|--12----10p9-9----9h10-10----10p9-9----9h10--| 
Db|-----10--------10---------10--------10-------| 
Ab|---------------------------------------------| 
Eb|---------------------------------------------| 

Eb|--------------| 
Bb|--------------| 
Gb|--------9-----|  x4 
Db|-----10---10--| 
Ab|--12----------| 
Eb|--------------| 

Eb|---------------------------------------------| 
Bb|---------------------------------------------| 
Gb|--12----10p9-9----9h10-10----10p9-9----9h10--| 
Db|-----10--------10---------10--------10-------| 
Ab|---------------------------------------------| 
Eb|---------------------------------------------| 

Eb|--------------| 
Bb|--------------| 
Gb|--------9-----|  x4 
Db|-----10---10--| 
Ab|--12----------| 
Eb|--------------| 

Eb|---------------------------------------------| 
Bb|---------------------------------------------| 
Gb|--12----10p9-9----9h10-10----10p9-9----9h10--| 
Db|-----10--------10---------10--------10-------| 
Ab|---------------------------------------------| 
Eb|---------------------------------------------| 

Eb|--------------| 
Bb|--------------| 
Gb|--------9-----|  x4 
Db|-----10---10--| 
Ab|--12----------| 
Eb|--------------| 

Eb|---------------------------------------------| 
Bb|---------------------------------------------| 
Gb|--12----10p9-9----9h10-10----10p9-9----9h10--| 
Db|-----10--------10---------10--------10-------| 
Ab|---------------------------------------------| 
Eb|---------------------------------------------| 


4:04 - 4:31 

Guitar 1 

Eb|--------------------------------------------------| 
Bb|--------------------------------------------------| 
Gb|--------------------------------------------------|  x2 
Db|--------------------------------------------------| 
Ab|-----0-----0-----0-----0-----0-----0-----0-----0--| 
Eb|--1-----1----0------3-----5-----5----8------7-----| 

Eb|--------------------------------------------------| 
Bb|--------------------------------------------------| 
Gb|--------------------------------------------------| 
Db|--------------------------------------------------| 
Ab|-----0-----0-----0-----0-----0-----0-----0-----0--| 
Eb|--8-----8----7------7-----9-----9----8------8-----| 

Eb|--------------------------------------------------| 
Bb|--------------------------------------------------| 
Gb|--------------------------------------------------| 
Db|--------------------------------------------------| 
Ab|-----0-----0-----0-----0-----0-----0-----0-----0--| 
Eb|--8-----8----7------7-----5-----5----5------5-----| 


Guitar 2 (Comes in at 4:13) 

Eb|----------------------------| 
Bb|-----------10--8-----8--10--| 
Gb|--9-----9---------9---------|  x4 
Db|-----7----------------------| 
Ab|----------------------------| 
Eb|----------------------------| 


END 


*************************************** 

|  /     slide up 
|  ~     held note 
|  p     pull off 
|  h     hammer on 

*************************************** 
		  

auto scroll beats size up size down change color hide chords drawings
tab show chords e-chords YouTube Clip e-chords hide all tabs e-chords go to top tab

share