save to print version add songbook text version e-mail correct tuner
chordsukulelecavacokeyboardtabbassdrumsharmonicaflute Guitar Pro
close

there isn't a video lesson for this song

chords

Pink Up Hi

	  		Pink Up Hi 
by The Aspiring Superheroes 
www.myspace.com/aspiringsuperheroes 
 
STANDARD TUNING 
 
Intro 
|-0-0-0-0-0-0-2-2-2-2-2-2-0-0-0-0-0-0-2-2-4-4-/-5--| 
|-2-2-2-2-2-2-2-2-2-2-2-2-0-0-0-0-0-0-3-3-3-3---3--| 
|-2-2-2-2-2-2-2-2-2-2-2-2-1-1-1-1-1-1-2-2-2-2---2--| 
|-2-2-2-2-2-2-4-4-4-4-4-4-2-2-2-2-2-2-0-0-0-0---0--| 
|-0-0-0-0-0-0-4-4-4-4-4-4-2-2-2-2-2-2--------------| 
|-------------2-2-2-2-2-2-0-0-0-0-0-0--------------| 
 
Verse 
|------------------------------------------------------| 
|------------------------------------------------------| 
|-----------------------------------------7-7-7-7-7-7--| 
|--7-7-7-7-7-7--4-4-4-4-4-4--2-2-2-2-2-2--7-7-7-7-7-7--| 
|--7-7-7-7-7-7--4-4-4-4-4-4--2-2-2-2-2-2--5-5-5-5-5-5--| 
|--5-5-5-5-5-5--2-2-2-2-2-2--0-0-0-0-0-0---------------| 
 
Chorus 
|------------------------------------------------------| 
|------------------------------------------------------| 
|--6--6-6-6-6-6--7--7-7-7-7-7---------------9-9-9-9-9--| 
|--6--6-6-6-6-6--7--7-7-7-7-7--7-7-7-7-7-7--9-9-9-9-9--| 
|--4--4-4-4-4-4--5--5-5-5-5-5--7-7-7-7-7-7--7-7-7-7-7--| 
|------------------------------5-5-5-5-5-5-------------| 
 
End On 
|------| 
|------| 
|------| 
|--7~--| 
|--7~--| 
|--5~--| 
 
that's all 

		  

See also:

tabs Red Hot Chili Peppers - Fortune Faded tabs Red Hot Chili Peppers - Scar Tissue (ver. 3) tabs Ben Harper - Sexual Healing tabs Red Hot Chili Peppers - Snow hey oh tabs Red Hot Chili Peppers - Dosed tabs Jonas Brothers - Love Bug Solo
e-chords

Other versions:

tabs Aspiring Superheroes - Pink Up Hi
auto scroll beats size up size down change color hide chords drawings
tab show chords e-chords YouTube Clip e-chords hide all tabs e-chords go to top tab

share