Antiskeptic

Jimmy Was Always Thinking

Antiskeptic

tabs

save to print version add songbook text version e-mail correct tuner
chordsukulelecavacokeyboardtabbassdrumsharmonicaflute Guitar Pro
close

there isn't a video lesson for this song

chords

Jimmy Was Always Thinking

	  		Tab by DougyB [email protected] 
 
standard tuning e b g d a E 
 
im not promising this as 100% but its close enough to give u an idea 
 
intro  
----------------------------------------- 
----------------------------------------- 
----------------------------------------- 
----------------------------------------- 
--65---85---65---85---------------------- 
-----6----6----6----6-6666--------------- 
                      pm 
 
preverse 
    a#        a aug5th   d#       a aug 5th  
----------------------------------------------- 
----------------------------------------------- 
----------------------------------------------- 
-----------------------88-8-88-8--------------- 
---88-8-88-8-88-8-88-8-66-6-66-6-88-8-65---5--- 
---66-6-66-6-55-5-55-5-----------55-5----6----- 
    
 
 
verse - same chords as preverse 
 
chorus (strumming not included, its not difficult to work out) 
-----------------------------  ----------------- 
-----------------------------  ----------------- 
-----------------------------  ----------------- 
-3x-3/5-7-8------------------  ---------8-10---- 
-3x-3/5-5-6-8-7-8-10-8-------  -8-7-5----6-8---- 
-1x-1/3-----6-5-6-8--6-------  -6-5-3----------- next part 
 
 
post chorus 
-------------------------------------- 
-------------------------------------- 
-------------------------------------- 
--------------------------888-101010-- 
----8--------8--------5---666-8-8-8--- 
-66---6-0-55---5-0-33---3------------- 
 
 
break 
----------------------------------------- 
----------------------------------------- 
--5--7----10-------------------10-------- 
--5--7-8--10------878787878787----8-7---- 
--3--5-8--8------------------------------ 
-------6--------------------------------- 
 
thats preety much it - check back soon and ill have tabbed "Called" + "Tears Simone" 
 
 

		  

See also:

tabs Clare Bowditch - Autumn Bone tabs Joss Stone - Tell Me What We Are Gonna do Now tabs Hillsong Music Australia - Breathe on me tabs INXS - I Need You Tonight tabs The Atlantics - Bombora tabs INXS - New Sensation
e-chords

Other versions:

tabs Antiskeptic - Jimmy Was Always Thinking
auto scroll beats size up size down change color hide chords drawings
tab show chords e-chords YouTube Clip e-chords hide all tabs e-chords go to top tab

share