Angus And Julia Stone

Santa Monica Dream

Angus And Julia Stone

tabs

by  JESSGOMES

save to print version add songbook text version e-mail correct tuner
chordsukulelecavacokeyboardtabbassdrumsharmonicaflute Guitar Pro
close

there isn't a video lesson for this song

chords

Santa Monica Dream

	  		
      Bm7                  C#5                  D 
D |-------0----0--0--0---------0----0--0--0---------0------------------------- 
A |-------0----0--0--0---------0----0--0--0---------5------------------------- 
F#|-------1----1--1--1---------3----3--3--3---------0------------------------- 
D |-------0----0--0--0---------0----0--0--0---------0------------------------- 
A |--2--------------------4-------------------------5------------------------- 
D |--------------------------------------------0------------------------------ 


Riff 1: 4x 


      Bm7                     C#5 
D |--------------------------------------------------------------------------- 
A |-----0-----------0-----------0-----------0--------------------------------- 
F#|-----------1-----------1-----------3-----------3--------------------------- 
D |--------0-----------0-----------0-----------0------------------------------ 
A |--2-----------2-----------4-----------4------------------------------------ 
D |--------------------------------------------------------------------------- 


      D 
D |--------------------------------------------------------------------------- 
A |-----5-----------5-----------5-----------5--------------------------------- 
F#|-----------0-----------0-----------0-----------0--------------------------- 
D |--------0-----------0-----------0-----------0------------------------------ 
A |--5-----------5-----------5-----------5------------------------------------ 
D |--------------------------------------------------------------------------- 




      D 
D |--------------------------------------------------------------------------- | 
A |-----0-----------0-----------0-----------0--------------------------------- | 
F#|-----------0-----------0-----------0-----------0--------------------------- | 
D |--------0-----------0-----------0-----------0------------------------------ | 
A |--------------------------------------------------------------------------- | 
D |--0-----------0-----------0-----------0------------------------------------ | 
                                                                               | 


      D/G                                                                       | 2x 
D |--------------------------------------------------------------------------- | 
A |-----0-----------0-----------0-----------0--------------------------------- | 
F#|-----------0-----------0-----------0-----------0--------------------------- | 
D |--------0-----------0-----------0-----------0------------------------------ | 
A |--------------------------------------------------------------------------- | 
D |--5-----------5-----------5-----------5------------------------------------ | 


      Bm7                     C#5 
D |--------------------------------------------------------------------------- | 
A |-----0-----------0-----------0-----------0--------------------------------- | 
F#|-----------1-----------1-----------3-----------3--------------------------- | 
D |--------0-----------0-----------0-----------0------------------------------ | 
A |--2-----------2-----------4-----------4------------------------------------ | 
D |--------------------------------------------------------------------------- | 
                                                                               |  


      D                                                                         | 2x 
D |--------------------------------------------------------------------------- | 
A |-----5-----------5-----------5-----------5--------------------------------- | 
F#|-----------0-----------0-----------0-----------0--------------------------- | 
D |--------0-----------0-----------0-----------0------------------------------ | 
A |--5-----------5-----------5-----------5------------------------------------ | 
D |--------------------------------------------------------------------------- | 

 
		  

See also:

tabs Ash Grunwald - The Last Stand tabs Angus And Julia Stone - Take You Away tabs Angus And Julia Stone - Walk It Off tabs Angus & Julia Stone - Chateau tabs Angus And Julia Stone - Santa Monica Dream
e-chords

Other versions:

tabs Angus And Julia Stone - Santa Monica Dream
auto scroll beats size up size down change color hide chords drawings
tab show chords e-chords YouTube Clip e-chords hide all tabs e-chords go to top tab

share