save to print version add songbook text version e-mail correct tuner
chordsukulelecavacokeyboardtabbassdrumsharmonicaflute Guitar Pro
close

there isn't a video lesson for this song

chords

Chateau

	  		
Intro 

Loop 1 
e|---17--18---13---12---10--| 
B|--------------------------| 
G|--------------------------| 
D|--------------------------| 
A|--------------------------| 
E|--------------------------| 

Loop 2 
Harmony overlay with part 1 (muted) 
e|------------------| 
B|------------------| 
G|------------------| 
D|------------------| 
A|-8-7-12--10-8-----| 
E|------------------| 

Loop 3 
e|----------------------------------------| 
B|----------------------------------------| 
G|----------------------------------------| 
D|---5---5----5----5----5----5----5----5--| 
A|-8---8----8----8----8----8----8----8----| 
E|----------------------------------------| 

Loop 4 
e|------------------------------------------| 
B|------------------------------------------| 
G|------------------------------------------| 
D|-7-8-7----7-8-7----7-8-7------------------| 
A|-------------------------------8-8--------| 
E|------------------------------------------| 

Riff  
e|--------------------x---x---x---x----| 
B|---10--10--10--10---8---8---8---8----| 
G|---10--10--10--10---10--10--10--10---| 
D|---x---x---x---x----10--10--10--10---| 
A|---10--10--10--10--------------------| 
E|-------------------------------------| 

************************************ 

| x   Dead note 

************************************ 
		  

See also:

tabs Angus And Julia Stone - Santa Monica Dream tabs Angus & Julia Stone - Chateau tabs Angus And Julia Stone - Take You Away tabs Angus And Julia Stone - Walk It Off tabs Ash Grunwald - The Last Stand
e-chords

Other versions:

tabs Angus & Julia Stone - Chateau
auto scroll beats size up size down change color hide chords drawings
tab show chords e-chords YouTube Clip e-chords hide all tabs e-chords go to top tab

share