Andy Grammer

home > Andy Grammer

Biggest Man In Los Angeles Tab

Andy Grammer

Difficulty: EasyEasy

by tarikike

tuner correct add songbook print version text version save to e-mail
chordsukulelecavacokeyboardtabbassdrumsharmonicsflute Guitar Pro
chords

Biggest Man In Los Angeles

  		

 

   Verse 
e|------------x--------------x-----------x--------------x--| 
B|------------x--------------x-----------x------1-1-1-1-x--| 
G|--2/5---5-5-x--4---4-4-4-4-x--2---2-2--x--0---0-0-0-0-x--| 
D|--1/4---4-4-x--2---2-2-2-2-x--1---1-1--x--2---2-2-2-2-x--| 
A|--x-----x-x-x--x---x-x-x-x-x--x---x-x--x--2-----------x--| 
E|--2/5---5-5-x--3---3-3-3-3-x--2---2-2--x--0-----------x--| 

   Bridge 1 
e|---------------------------------------------------------| 
B|---------------------------------------------------------| 
G|--5------------4--------------2-----------0--------------| 
D|--4------------2--------------1-----------2--------------| 
A|--x------------x--------------x-----------2--------------| 
E|--5------------3--------------2-----------0--------------| 

e|---------------------------------------------------------| 
B|---------------------------------------------------------| 
G|--5------------4--------------2-----------0--0--0--0--0--| 
D|--4------------2--------------1-----------2--2--2--2--2--| 
A|--x------------x--------------x-----------2--2--2--2--2--| 
E|--5------------3--------------2-----------0--0--0--0--0--| 

   Bridge 2 
e|---------------------------x--------------------------x--| 
B|--1--------1--------1--1---x--0--------0--------0--0--x--| 
G|--2--------2--------2--2---x--0--------0--------0--0--x--| 
D|--2--------2--------2--2---x--2--------2--------2--2--x--| 
A|--0--------0--------0--0---x--2--------2--------2--2--x--| 
E|---------------------------x--------------------------x--| 

   Chorus 
e|----3---3-3-x--3---3-3-3-3-x-----------x--3---3-3-3-3-x--| 
B|----3---3-3-x--3---3-3-3-3-x--1---1-1--x--3---3-3-3-3-x--| 
G|----0---0-0-x--0---0-0-0-0-x--2---2-2--x--0---0-0-0-0-x--| 
D|----0---0-0-x--2---2-2-2-2-x--2---2-2--x--2---2-2-2-2-x--| 
A|----2---2-2-x--3---3-3-3-3-x--0---0-0--x--3---3-3-3-3-x--| 
E|----3---3-3-x--------------x-----------x--------------x--|
 
	  

Search Paypal
auto scroll beats size up size down change color hide chords drawings
tab show chords e-chords YouTube Clip e-chords hide all tabs e-chords go to top tab