Andre Matos

Face The End

Andre Matos

tabs

by  MENTALIZE

save to print version add songbook text version e-mail correct tuner
chordsukulelecavacokeyboardtabbassdrumsharmonicaflute Guitar Pro
close

there isn't a video lesson for this song

chords

Face The End

(André Matos)

	  			 
intro piano: 

e-------15-14---12---------------------| 
b----12------------13--15-----12-------| 
g-------------------------14-----14-12-|4x 
d-14-----------------------------------| 
a--------------------------------------| 
e--------------------------------------| 


intro guitarra (entra na 3ª repetição da intro do piano): 

e------/15-14---12---------------------| 
b------------------13--15-----12-------| 
g-------------------------14-----14-12-| 
d--------------------------------------| 
a--------------------------------------| 
e--------------------------------------| 
		  

auto scroll beats size up size down change color hide chords drawings
tab show chords e-chords YouTube Clip e-chords hide all tabs e-chords go to top tab

share