Alvaro Veliz

Detective Conan

Alvaro Veliz

tabs Expert expert

by  ALEXRIBEIRO

save to print version add songbook text version e-mail correct tuner
chordsukulelecavacokeyboardtabbassdrumsharmonicaflute Guitar Pro
close

there isn't a video lesson for this song

chords

Detective Conan

(Alvaro Veliz)

	  		=INTRO= (Punteo en guitarra) 
   A    D  F#m  E   A    D  F#m  E   A 
E-------------------------- -------------------- 
B-------------------------- -------------------- 
G-------------------------- -----------------2-- 
D--------0----------------- --0--------------2-- 
A--0----------4----2----0-- -------4----2----0-- 
E-------------------------- -------------------- 

   D  F#m  E   A    D  F#m  E   A 
E-------------------- -------------------- 
B--3----2----0------- --3----2----0------- 
G-----------------2-- -----------------2-- 
D-----------------2-- -----------------2-- 
A-----------------0-- -----------------0-- 
E-------------------- -------------------- 

=Estrofa= 
      A                      F#m 
   UN DETECTIVE MUY CAPAZ, UN JOVEN CON UNA MISIÓN, 
   A                        F#m 
   UN MUCHACHO MUY AUDAZ, DE ÉL SE TRATA ESTÁ CANCIÓN... 
   A                         F#m 
   NADIE LE PODRÁ ENGAÑAR, SU GENIO NO SE PUEDE DUDAR, 
   A                              F#m 
   ESTE CHICO COMPROBARÁ... QUE EL CRIMEN NUNCA PAGARÁ... 

=PRECORO= (Punteo en Guitarra Eléctrica con efectos) 
     D                A            D               E 
E--0-2----4-5--4---2---0---2-0-- --0-2----4-5--4---2--7---7>9--5-- 
B------------------------------- --------------------------------- 
G------------------------------- --------------------------------- 
D------------------------------- --------------------------------- 
A------------------------------- --------------------------------- 
E------------------------------- --------------------------------- 

=CORO= 
  A 
    EN ESTE MUNDO DE SOMBRA Y DE LUZ... 
F#m 
    LA VERDAD SE LOGRA OCULTAR, 
 Bm 
    PERO SIEMPRE SUELE LLEGAR... 
  E                             A 
    ALGUIEN QUE NO LA DEJA DE BUSCAR... 
  A 
    EN ESTE MUNDO DE SOMBRA Y DE LUZ... 
F#m 
    LA VERDAD SE LOGRA OCULTAR, 
 Bm 
    PERO SIEMPRE SUELE LLEGAR... 
  E                             D 
    ALGUIEN QUE NO LA DEJA DE BUSCAR... 
 (Bm        E         A 
    QUE NO LA DEJA DE BUSCAR... 

=Final= (Punteo cúlmine) 
   D  F#m  E   A    D  F#m  E   A 
E-------------------- -----------------0-- 
B--3----2----0------- --3----2----0----2-- 
G-----------------2-- -----------------2-- 
D-----------------2-- -----------------2-- 
A-----------------0-- -----------------0-- 
E-------------------- -------------------- 

		  

Full key step upFull key step up
Half key step upHalf key step up
Half key step downHalf key step down
Full key step downFull key step down
hide glossary

See also:

tabs Alejandro Silva - Er Rock tabs Alejandro Silva - Neopangea tabs Alvaro Henríquez - Sirviente Y No Patrona tabs Inti Illimani - Alturas tabs Alvaro Veliz - Detective Conan tabs Chancho en Piedra - Lophophora
e-chords

Other versions:

tabs Alvaro Veliz - Detective Conan
auto scroll beats size up size down change color hide chords drawings
tab show chords e-chords YouTube Clip e-chords hide all tabs e-chords go to top tab

share