Chancho en Piedra

Lophophora

Chancho en Piedra

tabs Intermediate intermediate

by  NACHO_63

save to print version add songbook text version e-mail correct tuner
chordsukulelecavacokeyboardtabbassdrumsharmonicaflute Guitar Pro
close

there isn't a video lesson for this song

chords

Lophophora

	  		e----------------------------------------------------------- 
b--5-7-5-7-5-7-5----------5-7-5-7-5-7-5--------------------- 
g----------------7-4~~~~----------------7------------------- 
d-----------------------------------------7~~~~------------- 
a----------------------------------------------------------- 
e----------------------------------------------------------- 
 
e--------------5----------------------5--------------------- 
b--5-7-5-7-5-7---5-7~~~~--5-7-5-7-5-7---7-5~~~~------------- 
g----------------------------------------------------------- 
d----------------------------------------------------------- 
a----------------------------------------------------------- 
e----------------------------------------------------------- 
 
e----------------------------------------------------------- 
b--5-7-5-7-5-7-5---5----------5-7-5-7-5-7-5----------------- 
g----------------7---7-4~~~~----------------7--------------- 
d---------------------------------------------7~~~~--------- 
a----------------------------------------------------------- 
e----------------------------------------------------------- 
 
e--------------5---6/7~~~~--9-9h10-9--7-7h9-7--5-7-9-7~~~~-- 
b--5-7-5-7-5-7---5------------------------------------------ 
g----------------------------------------------------------- 
d----------------------------------------------------------- 
a----------------------------------------------------------- 
e----------------------------------------------------------- 
 
e---------------------------7--5--2~~~~-------------------|| 
b--9-9h10-9--10-10h12-10-9--7--5--2~~~~-------------------|| 
g---------------------------7--5--2~~~~-------------------|| 
d---------------------------9--7--4~~~~-------------------|| 
a---------------------------9--7--4~~~~-------------------|| 
e---------------------------7--5--2~~~~-------------------|| 

		  

See also:

tabs Chancho en Piedra - Locura espacial tabs Alvaro Veliz - No Se Vivir tabs Chancho en Piedra - Volantin tabs Alejandro Silva - Er Rock tabs Chancho en Piedra - Lophophora tabs Chancho en Piedra - Niņo peo
e-chords

Other versions:

tabs Chancho en Piedra - Lophophora
auto scroll beats size up size down change color hide chords drawings
tab show chords e-chords YouTube Clip e-chords hide all tabs e-chords go to top tab

share