Aline Barros

Sonda-me, Usa-me

Aline Barros

tabs Beginner beginner

by  SANDRO1978

save to print version add songbook text version e-mail correct tuner
chordsukulelecavacokeyboardtabbassdrumsharmonicaflute Guitar Pro
close

there isn't a video lesson for this song

chords

Sonda-me, Usa-me

Year: 2004 - Album: Som de Adoradores - Ao Vivo

	  		Este é o solo da  Intro. 


E |----8--8---10--10---10------8--8--10-12-10---10--------------------13--12-----------| 
B |-8-----------------------8---------------------------13-13--13------------13-----10-| 
G |-------------------------------------------------12-------------12------------12----| 
D |------------------------------------------------------------------------------------| 
A |------------------------------------------------------------------------------------| 
E |------------------------------------------------------------------------------------| 

-------------10-8--7------8--| 
-10---10---------------8-----| 
---------12------------------| 
-----------------------------| 
-----------------------------| 
-----------------------------| 


flw.. [email protected] 
		  

See also:

tabs Toque no Altar - Deus De Promessa tabs PG - Meu Universo tabs Atmosfera de Adoração - Agnus Dei(Solo) tabs Atmosfera de Adoração - Agnus Dei(Solo) tabs Oficina G3 - Atitude tabs Atmosfera de Adoração - Aleluia
e-chords

Other versions:

tabs Aline Barros - sonda-me, usa-me
auto scroll beats size up size down change color hide chords drawings
tab show chords e-chords YouTube Clip e-chords hide all tabs e-chords go to top tab

share