Airbag (España)

Familia De Subnormales Todos Locos

Airbag (España)

tabs

by  VANDCATARINO

save to print version add songbook text version e-mail correct tuner
chordsukulelecavacokeyboardtabbassdrumsharmonicaflute Guitar Pro
close

there isn't a video lesson for this song

chords

Familia De Subnormales Todos Locos

	  		       intro & prechorus            verse 
e |-------------------------|-----------------| 
B |-------------------------|-----------------| 
G |-----7----------7-----9--|--------7--9-----| 
D |--9--7--7--9----7--7--9--|--7--9--7--9-----| 
A |--9--5--7--9----5--7--7--|--7--9--5--7-----| 
E |--7-----5--7-------5-----|--5--7-----------| 
       \__x2__/ 
     B  D  A  B    D  A  E     A  B  D  E 

      chorus           fin del chorus         bridge (fui una vez...) 
e |--------------|------------------------|-----------------------------| 
B |--------------|------------------------|-----------------------------| 
G |--------7--9--|------------------------|-----7-----9-------7--9--10--| 
D |--7--4--7--9--|--7-7--6/77--6/77--6/6--|--4--7--7--9----4--7--9--10--| 
A |--7--4--5--7--|--7-7--6/77--6/77--6/6--|--4--5--7--7----4--5--7--8---| 
E |--5--2--------|--5-5--4/55--4/55--4/5--|--2-----5-------2------------| 

     A  F# D  E      A   G#/A  G#/A  G#/A    F# D  A  E    F# D  E  F 


    chorus 8va up          fin (outro) 
e |---------------|---------------------------| 
B |---------------|---------------------------| 
G |--------8--10--|---------------------------| 
D |--8--5--8--10--|--8-8--7/88--7/88--7/8~~~--| 
A |--8--5--6--8---|--8-8--7/88--7/88--7/8~~~--| 
E |--6--3---------|--6-6--5/66--5/66--5/6~~~--| 

     A# G  D# E       A#  A/A#  A/A#  A/A# 



:::::::::::::::::::::::::::::::::::::::::::::::::::::::::::::::::::::: 
 ¤ L E  T R  A  S  -  LE T  R A S   - L  E T  R A S - L E T  R S    ¤ 
:::::::::::::::::::::::::::::::::::::::::::::::::::::::::::::::::::::: 

'para ellos un ??? paseo de una tarde de verano se convirtio en una 
     pesadilla... la masacre de la sierra mecanica de Texas' 


dieciocho de agosto, hace calor,                     } 
todos contentos en una furgoneta                     } verse 
todos de broma y de buen humor                       }      I 
incluso Franklyn en la silla de ruedas               } 

Y no ! ya no subo a nadie en auto-stop               } 
Aquí están todos locos bajo el sol                   } pre-chorus 
Y esta si que es buena                               } 
¿qué es lo que va a hacer ese con esa motosierra ?   } 

UO O O O   no ire a Texas en verano nunca mas.       } c o u 
UO O O O   no ire a Texas en verano nunca mas.       }  h r s 

El armadillo fue una premonicion,                    } 
en este sitio se masca la tragedia.                  } verse 
Nadie sabia lo que nos sucedio,                      }      II 
el crimen mas bizarro de la historia de America.     } 



Y no ! ya no subo a nadie en auto-stop               } 
Aquí están todos locos bajo el sol                   } pre-chorus 
Y esta si que es buena                               } 
¿qué es lo que va a hacer ese con esa motosierra ?   } 

UO O O O   no ire a Texas en verano nunca mas.       } c o u 
UO O O O   no ire a Texas en verano nunca mas.       }  h r s 



Fui una vez y lo pase fatal                          } 
la sierra es la familia,yo lo pude comprobar.        } bridge 
Fui una vez y lo pasé fatal                          } 
y no volvere nunca, no ire en verano nunca mas.      } 



UO O O O   no ire a Texas en verano nunca mas.       } chorus 
UO O O O   no ire a Texas en verano nunca mas.       } 8va up 

		  

Full key step upFull key step up
Half key step upHalf key step up
Half key step downHalf key step down
Full key step downFull key step down
hide glossary

See also:

tabs Leño - La Fina tabs Fito & Fitipaldis - Vamono tabs Fito & Fitipaldis - La Casa Por El Tejado tabs Fito & Fitipaldis - Cualquier Cancion O Solo... tabs El Canto del Loco - Besos tabs Airbag (España) - Me Estrellé Contra Tu Casa
e-chords

Other versions:

tabs Airbag (España) - Familia De Subnormales Todos Locos
auto scroll beats size up size down change color hide chords drawings
tab show chords e-chords YouTube Clip e-chords hide all tabs e-chords go to top tab

share