Lengua Secreta

Mis Besos

Lengua Secreta

tabs

by  DANIVIEIRA

save to print version add songbook text version e-mail correct tuner
chordsukulelecavacokeyboardtabbassdrumsharmonicaflute Guitar Pro
close

there isn't a video lesson for this song

chords

Mis Besos

	  		Aqui os dejo esta transcripcion de una cancion preciosa, espero que os guste. 


(Noemi) 



-------3-- ----------2----------0---------------2-------------- 
---------------3---------3-----------3---------------3--------- 
----------- 0---------------0-----------0-----------------0----          X2 
--------------- ------------------------------------------------- 
----------------- ----------------------------------------------- 
-------3------------3-----------3---------------3-------------- 

(como arriba) 
miro tus fotografías mientras me hundo 


-------3-- ----------2----------0---------------2-------------- 
---------------3---------3-----------3---------------3--------- 
----------- 0---------------0-----------0-----------------0---- 
--------------- ------------------------------------------------- 
----------------- ----------------------------------------------- 
-------0------------0-----------0---------------0-------------- 

(como  arriba, y al decir ?arrebatar?, cambiamos) 

 Recordando aquello besos que nadie me puede arrebatar 
Nadie me puede arrebatar ?. 


-------3-- ----------2----------0---------------2-------------- 
---------------3---------3-----------3---------------3--------- 
----------- 0---------------0-----------0-----------------0---- 
-------0-------- ----0----------0---------------0-------------- 
----------------- ----------------------------------------------- 
---------------------------------------------------------------- 

AQUÍ EL CICLO COMIENZA 

Esperando tu llamada pienso en lo nuestro 
Tantos sueños prometidos mientras haciamos el amor ? 


G               Cadd9                 E 
Si dice que me quieres porque estas asi 
            Am                       C 
Dice que me añoras y aquí estoy sin ti 
                                D 
Solo dime que hice mal y que no tenian mis besos 

G          Cadd9                    E 
Y lloverán canciones que hablaran de ti 
           Am                 C 
De cómo te fuiste y me dejaste aquí 
                                            D 
Te quiero con todo mi corazon te digo que te echo de menos 
G            Cadd9                 E 
Ya no me llamas nunca no me quieres ver 
          Am                   C 
Pero no me rindo y solo intento ser, 
                                     D 
 un príncipe para mi princesa, Un principe para mi princesa 


-------3-------------2----------0---------------2-------------- 
---------------3---------3-----------3---------------3--------- 
----------- 0---------------0-----------0-----------------0---- 
--------------- ------------------------------------------------- 
----------------------------------------------------------------- 
-------3------------3-----------3---------------3-------------- 

-------3-- ----------2----------0---------------2-------------- 
---------------3---------3-----------3---------------3--------- 
----------- 0---------------0-----------0-----------------0---- 
--------------- ------------------------------------------------- 
----------------- ----------------------------------------------- 
-------0------------0-----------0---------------0-------------- 

-------3-- ----------2----------0---------------2-------------- 
---------------3---------3-----------3---------------3--------- 
----------- 0---------------0-----------0-----------------0---- 
--------------- ------------------------------------------------- 
-------3-------------3----------3---------------3-------------- 
----------------------------------------------------------------- 

-------3-- ----------2----------0---------------2-------------- 
---------------3---------3-----------3---------------3--------- 
----------- 0---------------0-----------0-----------------0---- 
-------0-------- ----0----------0---------------0-------------- 
----------------- ----------------------------------------------- 
---------------------------------------------------------------- 


G            Cadd9                 E 
Si dice que me quieres porque estas asi 
            Am                     C 
Dice que me añoras y aquí estoy sin ti 
                                D 
Solo dime que hice mal y que no tenian mis besos 

G         Cadd9                    E 
Y lloverán canciones que hablaran de ti 
          Am                    C 
De cómo te fuiste y me dejaste aquí 
                                   D 
Te quiero con todo mi corazon te digo que te echo de menos 

G           Cadd9              E 
No sabes explicarme que fallo en mi 
              Am                        C 
Que no pude darte cuando estabas a mi lado 
D 
 ------------ Y yo junto a ti. 

Final a dos guitarras: 

La primera hace esto: 

------------------------------------------------------------------------------- 
---12----------13-----------------15--------------------13----------------- 
-------12-------------12------------------12-------------------12---------- 
-------------12---------------12---------------12--------------------12---- 
------------------------------------------------------------------------------- 
------------------------------------------------------------------------------- 

La segunda guitarra hace esto 


-------------------------------------------------------------------------- 
----3-----3-----1-----1------0-----0-----1-----1-----0---------------- 
-------0------------0------------0------------0------------------------- 
------------------------------------------------------------------------- 
------------------------------------------------------------------------ 
----3------------3------------3------------3-----------3-------------
		  

Full key step upFull key step up
Half key step upHalf key step up
Half key step downHalf key step down
Full key step downFull key step down
auto scroll beats size up size down change color hide chords drawings
tab show chords e-chords YouTube Clip e-chords hide all tabs e-chords go to top tab