Aerosmith

home > Aerosmith

Angel (ver. 2) Tab

Aerosmith

Difficulty: nolevelnolevel

by d%40nilo+89

tuner correct add songbook print version text version save to e-mail
chordsukulelecavacokeyboardtabbassdrumsharmonicsflute Guitar Pro
chords

Angel (ver. 2)

  		Angel-Aerosmith 
 
e|-----------------------------------------------------------| 
b|-----------------------------------------------------------| 
g|---------13------------------------------------------------| 
d|--13^17---17--15^17^15-13-------13-------------------------| 
a|-------------------------------13^15---15--13-11-10-8------| 
E|-----------------------------------------------------------| 
 
     
e|--------------------------------------------------------------| 
b|-----------------------11b(13)r11-----------------------------| 
g|--------------8^10^8--------------10b(12)--10b(12)r10^8-------| 
d|---------8/10-------------------------------------------------| 
a|--6-8/10------------------------------------------------------| 
E|--------------------------------------------------------------| 
      
 
e|--------------------------------------------------------------| 
b|--------------------------------------------------------------| 
g|---------8-8--------------------8-8--------------10^8---------| 
d|--8^10-------------8-8--8^10-------------8-8---------10-------| 
a|--------------8^10-------------------8^10---------------------| 
E|--------------------------------------------------------------| 
        
 
e|-----------------------------------------------------------| 
b|-----------------11--11------------------------------------| 
g|--10b(11)r10^8--------10b(12)----(12)r10^8-10b(12)---------| 
d|-----------------------------------------------------------| 
a|-----------------------------------------------------------| 
E|-----------------------------------------------------------| 
 
 
e|-------------------------------------------------11-13-------| 
b|----------------------------------11-11\13-13----------------| 
g|--10b(12)-10-8-----8-10\12-12--------------------------------| 
d|-----------------10------------------------------------------| 
a|-------------------------------------------------------------| 
E|-------------------------------------------------------------| 
 
 
e|------------|------------|-------------|-------------| 
b|------------|------------|-------------|-------------| 
g|------------|------------|-------------|-------------| 
d|--8---------|------------|-------------|-------------|. 
a|--6-------8-|-6-------8-|-10-------8-|-6--------8-| 
E|----------6-|-4-------6-|--8-------6-|-4--------6-| 
     1  &  2  &  1  &  2  &    1  &  2  &   1  &  2  &     etc...
	  

Search Paypal
auto scroll beats size up size down change color hide chords drawings
tab show chords e-chords YouTube Clip e-chords hide all tabs e-chords go to top tab