Pearl Jam

home > Pearl Jam

Angel Tab

Pearl Jam

Difficulty: AdvancedAdvanced

tuner correct add songbook print version text version save to e-mail
chordsukulelecavacokeyboardtabbassdrumsharmonicsflute Guitar Pro
chords

Angel

  		 
Played on a 12-string I think 
Let all open notes ring as you play the moving chords 
This prolly isn't right but it sounds close 
 
-|-------0----0-0--0--0----0---0----0-0--0--0----0---|------------------------ 
-|-------0----0-0--0--0----0---0----0-0--0--0----0---|------------------------ 
-|-------6/8--8-8--8-------8---6/8--8-8--8-------8---|------------------------ 
-|-------7/9-------9----0------7/9-------9----0------|------------------------ 
-|-------5/7-------7-----------5/7-------7-----------|------------------------ 
-|---------------------------------------------------|------------------------ 
 Like an angel                 fly over your house                             
 
-|-------0----0-0--0--0----0---0----0-0--0--0----0---|------------------------ 
-|-------0----0-0--0--0----0---0----0-0--0--0----0---|------------------------ 
-|-------6/8--8-8--8-------8---6/8--8-8--8-------8---|------------------------ 
-|-------7/9-------9----0------7/9-------9----0------|------------------------ 
-|-------5/7-------7-----------5/7-------7-----------|------------------------ 
-|---------------------------------------------------|------------------------ 
 Like an angel                 pass out wishes                                 
 
-|-------0----0-0--0--0----0---0----0-0--0--0----0---|------------------------ 
-|-------0----0-0--0--0----0---0----0-0--0--0----0---|------------------------ 
-|-------6/8--8-8--8-------8---6/8--8-8--8-------8---|------------------------ 
-|-------7/9-------9----0------7/9-------9----0------|------------------------ 
-|-------5/7-------7-----------5/7-------7-----------|------------------------ 
-|---------------------------------------------------|------------------------ 
 Like an angel                 I will move the arrow                           
 
-|-------0----0-0--0--0----0---0----0-0--0--0----0---|------------------------ 
-|-------0----0-0--0--0----0---0----0-0--0--0----0---|------------------------ 
-|-------6/8--8-8--8-------8---6/8--8-8--8-------8---|------------------------ 
-|-------7/9-------9----0------7/9-------9----0------|------------------------ 
-|-------5/7-------7-----------5/7-------7-----------|------------------------ 
-|---------------------------------------------------|------------------------ 
 Like an angel                 I        live    alone                          
 
-|-0----0--0-0--0-0--0--0-0--0--0-0--0----0--0-0--0-0--0--0-0--0--0-0-|------- 
-|-0----0--0-0--0-0--0--0-0--0--0-0--0----0--0-0--0-0--0--0-0--0--0-0-|------- 
-|-4/6--6----8--8-8--8--8-8--8--8-8--4/6--6----8--8-8--8--8-8--8--8-8-|------- 
-|-5/7--7----9--9-9--9--9-9--9--9-9--5/7--7----9--9-9--9--9-9--9--9-9-|------- 
-|-0----5----7--7-7--7--7-7--7--7-7--0----5----7--7-7--7--7-7--7--7-7-|------- 
-|--------------------------------------------------------------------|------- 
  I'm not living           what was  promised       I am close but can't       
 
-|-0----0--0-0--0-0--0--0-0--0--0-0--0----0--0-0--0-0--0--0-0--0--0-0-|------- 
-|-0----0--0-0--0-0--0--0-0--0--0-0--0----0--0-0--0-0--0--0-0--0--0-0-|------- 
-|-4/6--6----8--8-8--8--8-8--8--8-8--4/6--6----8--8-8--8--8-8--8--8-8-|------- 
-|-5/7--7----9--9-9--9--9-9--9--9-9--5/7--7----9--9-9--9--9-9--9--9-9-|------- 
-|-0----5----7--7-7--7--7-7--7--7-7--0----5----7--7-7--7--7-7--7--7-7-|------- 
-|--------------------------------------------------------------------|------- 
 Enjoy           Oh     I'm   not    dying       Oh       I'm     so           
 
-|-0----0-0--0--0----0---0----0-0--0--0----0---|------------------------------ 
-|-0----0-0--0--0----0---0----0-0--0--0----0---|------------------------------ 
-|-6/8--8-8--8-------8---6/8--8-8--8-------8---|------------------------------ 
-|-7/9-------9----0------7/9-------9----0------|------------------------------ 
-|-5/7-------7-----------5/7-------7-----------|------------------------------ 
-|---------------------------------------------|------------------------------ 
   Tortured              'cause I see all                                      
 
-|-0----0-0--0--0----0---0----0-0--0--0----0---|------------------------------ 
-|-0----0-0--0--0----0---0----0-0--0--0----0---|------------------------------ 
-|-6/8--8-8--8-------8---6/8--8-8--8-------8---|------------------------------ 
-|-7/9-------9----0------7/9-------9----0------|------------------------------ 
-|-5/7-------7-----------5/7-------7-----------|------------------------------ 
-|---------------------------------------------|------------------------------ 
   Tortured          and all I cannot do                                       
 
-|-0----0-0--0--0----0---0----0-0--0--0----0---|------------------------------ 
-|-0----0-0--0--0----0---0----0-0--0--0----0---|------------------------------ 
-|-6/8--8-8--8-------8---6/8--8-8--8-------8---|------------------------------ 
-|-7/9-------9----0------7/9-------9----0------|------------------------------ 
-|-5/7-------7-----------5/7-------7-----------|------------------------------ 
-|---------------------------------------------|------------------------------ 
   Tortured              all I should have done                                
 
-|-0----0-0--0--0----0---0----0-0--0--0----0---|------------------------------ 
-|-0----0-0--0--0----0---0----0-0--0--0----0---|------------------------------ 
-|-6/8--8-8--8-------8---6/8--8-8--8-------8---|------------------------------ 
-|-7/9-------9----0------7/9-------9----0------|------------------------------ 
-|-5/7-------7-----------5/7-------7-----------|------------------------------ 
-|---------------------------------------------|------------------------------ 
   Tortured              while I occupied a man                                
 
-|-0----0--0-0--0-0--0--0-0--0--0-0--0----0--0-0--0-0--0--0-0--0--0-0-|------- 
-|-0----0--0-0--0-0--0--0-0--0--0-0--0----0--0-0--0-0--0--0-0--0--0-0-|------- 
-|-4/6--6----8--8-8--8--8-8--8--8-8--4/6--6----8--8-8--8--8-8--8--8-8-|------- 
-|-5/7--7----9--9-9--9--9-9--9--9-9--5/7--7----9--9-9--9--9-9--9--9-9-|------- 
-|-0----5----7--7-7--7--7-7--7--7-7--0----5----7--7-7--7--7-7--7--7-7-|------- 
-|--------------------------------------------------------------------|------- 
   I'm not living           what was promised     I am far from glori-         
 
-|-0----0--0-0--0-0--0--0-0--0--0-0--0----0--0-0--0-0--0--0-0--0--0-0-|------- 
-|-0----0--0-0--0-0--0--0-0--0--0-0--0----0--0-0--0-0--0--0-0--0--0-0-|------- 
-|-4/6--6----8--8-8--8--8-8--8--8-8--4/6--6----8--8-8--8--8-8--8--8-8-|------- 
-|-5/7--7----9--9-9--9--9-9--9--9-9--5/7--7----9--9-9--9--9-9--9--9-9-|------- 
-|-0----5----7--7-7--7--7-7--7--7-7--0----5----7--7-7--7--7-7--7--7-7-|------- 
-|--------------------------------------------------------------------|------- 
  -fied          Oh     I'm   not    dyin'       Oh    I'm    not   a-         
 
-|-0--0-0-0--0--0-0-0--0--0-0-0--0--0-0-0--|---------------------------------- 
-|-0--0-0-0--0--0-0-0--0--0-0-0--0--0-0-0--|---------------------------------- 
-|-9--9-9-9--9--9-9-9--8--8-8-8--8--8-8-8--|---------------------------------- 
-|-9--9-9-9--9--9-9-9--9--9-9-9--9--9-9-9--|---------------------------------- 
-|-7--7-7-7--7--7-7-7--7--7-7-7--7--7-7-7--|---------------------------------- 
-|-0--0-0-0--0--0-0-0--0--0-0-0--0--0-0-0--|---------------------------------- 
  -lone________________________________  2x                                    
 
-|-0--0-0-0--0--0-0-0--0--0-0-0--0--0-0-0--|---------------------------------- 
-|-0--0-0-0--0--0-0-0--0--0-0-0--0--0-0-0--|---------------------------------- 
-|-9--9-9-9--9--9-9-9--8--8-8-8--8--8-8-8--|---------------------------------- 
-|-9--9-9-9--9--9-9-9--9--9-9-9--9--9-9-9--|---------------------------------- 
-|-7--7-7-7--7--7-7-7--7--7-7-7--7--7-7-7--|---------------------------------- 
-|-0--0-0-0--0--0-0-0--0--0-0-0--0--0-0-0--|---------------------------------- 
   Mind  is  not  a    celestial state with                                    
 
-|-0--0-0-0--0--0-0-0--0--0-0-0--0--0-0-0--|---------------------------------- 
-|-0--0-0-0--0--0-0-0--0--0-0-0--0--0-0-0--|---------------------------------- 
-|-9--9-9-9--9--9-9-9--8--8-8-8--8--8-8-8--|---------------------------------- 
-|-9--9-9-9--9--9-9-9--9--9-9-9--9--9-9-9--|---------------------------------- 
-|-7--7-7-7--7--7-7-7--7--7-7-7--7--7-7-7--|---------------------------------- 
-|-0--0-0-0--0--0-0-0--0--0-0-0--0--0-0-0--|---------------------------------- 
   Idle      helms of  praise                                                  
 
-|-0--0-0-0--0--0-0-0--0--0-0-0--0--0-0-0--|---------------------------------- 
-|-0--0-0-0--0--0-0-0--0--0-0-0--0--0-0-0--|---------------------------------- 
-|-9--9-9-9--9--9-9-9--8--8-8-8--8--8-8-8--|---------------------------------- 
-|-9--9-9-9--9--9-9-9--9--9-9-9--9--9-9-9--|---------------------------------- 
-|-7--7-7-7--7--7-7-7--7--7-7-7--7--7-7-7--|---------------------------------- 
-|-0--0-0-0--0--0-0-0--0--0-0-0--0--0-0-0--|---------------------------------- 
   Time  is  short  I  have an  appointment at                                 
 
-|-0--0-0-0--0--0-0-0--0--0-0-0--0--0-0-0--|---------------------------------- 
-|-0--0-0-0--0--0-0-0--0--0-0-0--0--0-0-0--|---------------------------------- 
-|-9--9-9-9--9--9-9-9--8--8-8-8--8--8-8-8--|---------------------------------- 
-|-9--9-9-9--9--9-9-9--9--9-9-9--9--9-9-9--|---------------------------------- 
-|-7--7-7-7--7--7-7-7--7--7-7-7--7--7-7-7--|---------------------------------- 
-|-0--0-0-0--0--0-0-0--0--0-0-0--0--0-0-0--|---------------------------------- 
   Noon            at  noon in hell     a-                                     
 
-|-0--0-0-0--0--0-0-0--0--0-0-0--0--0-0-0--|---------------------------------- 
-|-0--0-0-0--0--0-0-0--0--0-0-0--0--0-0-0--|---------------------------------- 
-|-9--9-9-9--9--9-9-9--8--8-8-8--8--8-8-8--|---------------------------------- 
-|-9--9-9-9--9--9-9-9--9--9-9-9--9--9-9-9--|---------------------------------- 
-|-7--7-7-7--7--7-7-7--7--7-7-7--7--7-7-7--|---------------------------------- 
-|-0--0-0-0--0--0-0-0--0--0-0-0--0--0-0-0--|---------------------------------- 
  -cross the ways  of  space and fields of                                     
 
-|-0--0-0-0--0--0-0-0--0--0-0-0--0--0-0-0--|---------------------------------- 
-|-0--0-0-0--0--0-0-0--0--0-0-0--0--0-0-0--|---------------------------------- 
-|-9--9-9-9--9--9-9-9--8--8-8-8--8--8-8-8--|---------------------------------- 
-|-9--9-9-9--9--9-9-9--9--9-9-9--9--9-9-9--|---------------------------------- 
-|-7--7-7-7--7--7-7-7--7--7-7-7--7--7-7-7--|---------------------------------- 
-|-0--0-0-0--0--0-0-0--0--0-0-0--0--0-0-0--|---------------------------------- 
   Air I glide        alone at night    oh                                     
 
-|-0--0-0-0--0--0-0-0--0--0-0-0--0--0-0-0--|---------------------------------- 
-|-0--0-0-0--0--0-0-0--0--0-0-0--0--0-0-0--|---------------------------------- 
-|-9--9-9-9--9--9-9-9--8--8-8-8--8--8-8-8--|---------------------------------- 
-|-9--9-9-9--9--9-9-9--9--9-9-9--9--9-9-9--|---------------------------------- 
-|-7--7-7-7--7--7-7-7--7--7-7-7--7--7-7-7--|---------------------------------- 
-|-0--0-0-0--0--0-0-0--0--0-0-0--0--0-0-0--|---------------------------------- 
   Please    please    think of me   'cause                                    
 
-|-0--0-0-0--0--0-0-0--0--0-0-0--0--0-0-0--|---------------------------------- 
-|-0--0-0-0--0--0-0-0--0--0-0-0--0--0-0-0--|---------------------------------- 
-|-9--9-9-9--9--9-9-9--8--8-8-8--8--8-8-8--|---------------------------------- 
-|-9--9-9-9--9--9-9-9--9--9-9-9--9--9-9-9--|---------------------------------- 
-|-7--7-7-7--7--7-7-7--7--7-7-7--7--7-7-7--|---------------------------------- 
-|-0--0-0-0--0--0-0-0--0--0-0-0--0--0-0-0--|---------------------------------- 
   I'm                 I'm      by your                                        
 
-|-0--0-0-0--0--0-0-0--0--0-0-0--0--0-0-0--|---------------------------------- 
-|-0--0-0-0--0--0-0-0--0--0-0-0--0--0-0-0--|---------------------------------- 
-|-9--9-9-9--9--9-9-9--8--8-8-8--8--8-8-8--|---------------------------------- 
-|-9--9-9-9--9--9-9-9--9--9-9-9--9--9-9-9--|---------------------------------- 
-|-7--7-7-7--7--7-7-7--7--7-7-7--7--7-7-7--|---------------------------------- 
-|-0--0-0-0--0--0-0-0--0--0-0-0--0--0-0-0--|---------------------------------- 
   Side                I'm      by your  2x                                    
 
-|-0--0-0-0--0--0-0-0--0--0-0-0--0--0-0-0--|---------------------------------- 
-|-0--0-0-0--0--0-0-0--0--0-0-0--0--0-0-0--|---------------------------------- 
-|-9--9-9-9--9--9-9-9--8--8-8-8--8--8-8-8--|---------------------------------- 
-|-9--9-9-9--9--9-9-9--9--9-9-9--9--9-9-9--|---------------------------------- 
-|-7--7-7-7--7--7-7-7--7--7-7-7--7--7-7-7--|---------------------------------- 
-|-0--0-0-0--0--0-0-0--0--0-0-0--0--0-0-0--|---------------------------------- 
     Side              oh                                                      
 
-|-0--0-0-0--0--0-0-0--0--0-0-0--0--0-0-0--|---------------------------------- 
-|-0--0-0-0--0--0-0-0--0--0-0-0--0--0-0-0--|---------------------------------- 
-|-9--9-9-9--9--9-9-9--8--8-8-8--8--8-8-8--|---------------------------------- 
-|-9--9-9-9--9--9-9-9--9--9-9-9--9--9-9-9--|---------------------------------- 
-|-7--7-7-7--7--7-7-7--7--7-7-7--7--7-7-7--|---------------------------------- 
-|-0--0-0-0--0--0-0-0--0--0-0-0--0--0-0-0--|---------------------------------- 
   Oh_________________________________   2x                                    
 
-|-0--0-0-0--0--0-0-0--0------||---------------------------------------------- 
-|-0--0-0-0--0--0-0-0--0------||---------------------------------------------- 
-|-9--9-9-9--9--9-9-9--9------||---------------------------------------------- 
-|-9--9-9-9--9--9-9-9--9------||---------------------------------------------- 
-|-7--7-7-7--7--7-7-7--7------||---------------------------------------------- 
-|-0--0-0-0--0--0-0-0--0------||---------------------------------------------- 
   I'm       by your   side                                          
 
_______________________________________________________ 
Contribuição: Erik Mendes([email protected]) 

	  

Search Paypal
auto scroll beats size up size down change color hide chords drawings
tab show chords e-chords YouTube Clip e-chords hide all tabs e-chords go to top tab