A Change Of Pace

White Lines And Lipstick

A Change Of Pace

tabs

by  FERNSANTANA

save to print version add songbook text version e-mail correct tuner
chordsukulelecavacokeyboardtabbassdrumsharmonicaflute Guitar Pro
close

there isn't a video lesson for this song

chords

White Lines And Lipstick

	  		


       Intro 
 
e|-----------------------------------------------------------------------------| 
B|-----------------------------------------------------------------------------| 
G|-----------------------------------------------------------------------------| 
D|-----------------------------------------------------------------------------| 
A|-----------------------------------------------------------------------------| 
D|-12-13-13-13--12-13-13-13--12-13-13-13--12-13-13-13--15-16-16-16--15-16-16---| 
 
| 

 
e|---------------------------------------------------------------------------| 
B|---------------------------------------------------------------------------| 
G|---------------------------------------------------------------------------| 
D|---------------------------------------------------------------------------| 
A|------------------------------12-13-13-13--12-13-13-13--12-13-13-13--12-13 | 
D|-16--15-16-16-16--15-16-16-16----------------------------------------------| 
 

 
e|-----------------------------------------------------------------------------| 
B|-----------------------------------------------------------------------------| 
G|-----------------------------------------------------------------------------| 
D|--------12-13-13-13--12-13-13-13--12-13-13-13--12-13-13-13-------------------| 
A|-13-13-----------------------------------------------------------------------| 
D|-----------------------------------------------------------------------------| 
 
| 


       Verse 
 
e|---------------------------------------------------------------------------| 
B|---------------------------------------------------------------------------| 
G|---------------------------------------------------------------------------| 
D|-6-6--4-4--1--16-16-16----6-6--4-4--1----6-6--4-4--1--16-16-16----6-6--4-4-| 
A|-6-6--4-4--1--16-16-16----6-6--4-4--1----6-6--4-4--1--16-16-16----6-6--4-4-| 
D|-6-6--4-4--1--16-16-16----6-6--4-4--1----6-6--4-4--1--16-16-16----6-6--4-4-| 
 

 
e|------------------------------------------------------------------------------| 
B|------------------------------------------------------------------------------| 
G|------------------------------------------------------------------------------| 
D|-1----1-1-1-4----1-1-1-4----4-6-4-1----4-6-4-1----1-1-1-4----1-1-1-4----4-----| 
A|-1----1-1-1-4----1-1-1-4----4-6-4-1----4-6-4-1----1-1-1-4----1-1-1-4----4-----| 
D|-1----1-1-1-4----1-1-1-4----4-6-4-1----4-6-4-1----1-1-1-4----1-1-1-4----4-----| 
 

 
e|---------------------------------------------------------------------------| 
B|---------------------------------------------------------------------------| 
G|---------------------------------------------------------------------------| 
D|-6-4-1----4-6-4-1----6--4--1--4-4-4-4-1----4-4-4-4-1----4-4-4-4-1----4-4-4-| 
A|-6-4-1----4-6-4-1----6--4--1--4-4-4-4-1----4-4-4-4-1----4-4-4-4-1----4-4-4-| 
D|-6-4-1----4-6-4-1----6--4--1--4-4-4-4-1----4-4-4-4-1----4-4-4-4-1----4-4-4-| 
 


           Chorus 
 
e|---------------------------------------------------------------------------| 
B|---------------------------------------------------------------------------| 
G|---------------------------------------------------------------------------| 
D|-4-1----6--6-6-6-6-6-6-6-6-6-6-6-6----4--4-4-4-4-4-4-4-4-4-4-4-4----1--1-1-| 
A|-4-1----6--6-6-6-6-6-6-6-6-6-6-6-6----4--4-4-4-4-4-4-4-4-4-4-4-4----1--1-1-| 
D|-4-1----6--6-6-6-6-6-6-6-6-6-6-6-6----4--4-4-4-4-4-4-4-4-4-4-4-4----1--1-1-| 
 

 
e|---------------------------------------------------------------------------| 
B|---------------------------------------------------------------------------| 
G|---------------------------------------------------------------------------| 
D|-1--1-1--------------------------------------------------------------------| 
A|-1--1-1--------------------------------------------------------------------| 
D|-1--1-1--------------------------------------------------------------------| 
Play Chorus twice then end second time open. Play verse again and then the Chorus two  

times and again ending open.  After that then you play..... 

 
e|---------------------------------------------------------------------------| 
B|---------------------------------------------------------------------------| 
G|---------------------------------------------------------------------------| 
D|-1--1-1-1-1----1-4--1-1-1-1-1----1-4-1-4-----------------------------------| 
A|-1--1-1-1-1----1-4--1-1-1-1-1----1-4-1-4-----------------------------------| 
D|-1--1-1-1-1----1-4--1-1-1-1-1----1-4-1-4-----------------------------------| 
repeat this 4 times and end last time open, then play the Chorus but instead of playing  

 
		  

auto scroll beats size up size down change color hide chords drawings
tab show chords e-chords YouTube Clip e-chords hide all tabs e-chords go to top tab

share