A Change Of Pace

Loose Lips Sink Ships

A Change Of Pace

tabs

by  FERNSANTANA

save to print version add songbook text version e-mail correct tuner
chordsukulelecavacokeyboardtabbassdrumsharmonicaflute Guitar Pro
close

there isn't a video lesson for this song

chords

Loose Lips Sink Ships

	  		 

Let Ring 
 
e|------------------------------------| 
B|------------------------------------| 
G|------------------------------------| 
D|---2------3------5------7-----------| 
A|------------------------------------| 
D|------------------------------------| 
 

So i made you lie.. 
e|------------------------------------------------------| 
B|------------------------------------------------------| 
G|------------------------------------------------------| 
D|---------------0-888-0-888-0-888-101010101010---------|  
A|---------------0-888-0-888-0-888-101010101010---------|  x2 
D|---------------0-888-0-888-0-888-101010101010---------| 




| /  slide up 
| \  slide down 
| h  hammer-on 
| p  pull-off 
| ~  vibrato 
| +  harmonic 
| x  Mute note 
 
		  

auto scroll beats size up size down change color hide chords drawings
tab show chords e-chords YouTube Clip e-chords hide all tabs e-chords go to top tab

share